  0
SECTION
  2
HEADER
  9
$ACADVER
  1
AC1015
  9
$ACADMAINTVER
 70
     6
  9
$DWGCODEPAGE
  3
ANSI_1254
  9
$INSBASE
 10
0.0
 20
0.0
 30
0.0
  9
$EXTMIN
 10
0.0
 20
0.0
 30
0.0
  9
$EXTMAX
 10
279.4
 20
215.9
 30
0.0
  9
$LIMMIN
 10
0.0
 20
0.0
  9
$LIMMAX
 10
279.4
 20
215.9
  9
$ORTHOMODE
 70
     0
  9
$REGENMODE
 70
     1
  9
$FILLMODE
 70
     1
  9
$QTEXTMODE
 70
     0
  9
$MIRRTEXT
 70
     1
  9
$LTSCALE
 40
1.0
  9
$ATTMODE
 70
     1
  9
$TEXTSIZE
 40
3.5
  9
$TRACEWID
 40
1.0
  9
$TEXTSTYLE
  7
Standard
  9
$CLAYER
  8
0
  9
$CELTYPE
  6
ByLayer
  9
$CECOLOR
 62
   256
  9
$CELTSCALE
 40
1.0
  9
$DISPSILH
 70
     0
  9
$DIMSCALE
 40
1.0
  9
$DIMASZ
 40
3.5
  9
$DIMEXO
 40
1.0
  9
$DIMDLI
 40
3.75
  9
$DIMRND
 40
0.0
  9
$DIMDLE
 40
0.0
  9
$DIMEXE
 40
1.0
  9
$DIMTP
 40
0.0
  9
$DIMTM
 40
0.0
  9
$DIMTXT
 40
3.5
  9
$DIMCEN
 40
2.5
  9
$DIMTSZ
 40
0.0
  9
$DIMTOL
 70
     0
  9
$DIMLIM
 70
     0
  9
$DIMTIH
 70
     1
  9
$DIMTOH
 70
     1
  9
$DIMSE1
 70
     0
  9
$DIMSE2
 70
     0
  9
$DIMTAD
 70
     1
  9
$DIMZIN
 70
     0
  9
$DIMBLK
  1

  9
$DIMASO
 70
     1
  9
$DIMSHO
 70
     1
  9
$DIMPOST
  1

  9
$DIMAPOST
  1

  9
$DIMALT
 70
     0
  9
$DIMALTD
 70
     3
  9
$DIMALTF
 40
0.0393700787
  9
$DIMLFAC
 40
1.0
  9
$DIMTOFL
 70
     1
  9
$DIMTVP
 40
0.0
  9
$DIMTIX
 70
     0
  9
$DIMSOXD
 70
     0
  9
$DIMSAH
 70
     0
  9
$DIMBLK1
  1

  9
$DIMBLK2
  1

  9
$DIMSTYLE
  2
ISO-25
  9
$DIMCLRD
 70
     0
  9
$DIMCLRE
 70
     0
  9
$DIMCLRT
 70
     0
  9
$DIMTFAC
 40
1.0
  9
$DIMGAP
 40
1.524
  9
$DIMJUST
 70
     0
  9
$DIMSD1
 70
     0
  9
$DIMSD2
 70
     0
  9
$DIMTOLJ
 70
     0
  9
$DIMTZIN
 70
     0
  9
$DIMALTZ
 70
     0
  9
$DIMALTTZ
 70
     0
  9
$DIMUPT
 70
     0
  9
$DIMDEC
 70
     2
  9
$DIMTDEC
 70
     2
  9
$DIMALTU
 70
     2
  9
$DIMALTTD
 70
     3
  9
$DIMTXSTY
  7
Standard
  9
$DIMAUNIT
 70
     0
  9
$DIMADEC
 70
     2
  9
$DIMALTRND
 40
0.0
  9
$DIMAZIN
 70
     0
  9
$DIMDSEP
 70
    44
  9
$DIMATFIT
 70
     3
  9
$DIMFRAC
 70
     0
  9
$DIMLDRBLK
  1

  9
$DIMLUNIT
 70
     2
  9
$DIMLWD
 70
    -2
  9
$DIMLWE
 70
    -2
  9
$DIMTMOVE
 70
     0
  9
$LUNITS
 70
     2
  9
$LUPREC
 70
     2
  9
$SKETCHINC
 40
1.0
  9
$FILLETRAD
 40
10.0
  9
$AUNITS
 70
     0
  9
$AUPREC
 70
     2
  9
$MENU
  1
.
  9
$ELEVATION
 40
0.0
  9
$PELEVATION
 40
0.0
  9
$THICKNESS
 40
0.0
  9
$LIMCHECK
 70
     0
  9
$CHAMFERA
 40
0.0
  9
$CHAMFERB
 40
0.0
  9
$CHAMFERC
 40
0.0
  9
$CHAMFERD
 40
0.0
  9
$SKPOLY
 70
     0
  9
$TDCREATE
 40
2459741.588705602
  9
$TDUCREATE
 40
2459741.463705602
  9
$TDUPDATE
 40
2459741.58870757
  9
$TDUUPDATE
 40
2459741.46370757
  9
$TDINDWG
 40
0.0000000116
  9
$TDUSRTIMER
 40
0.0000000116
  9
$USRTIMER
 70
     1
  9
$ANGBASE
 50
0.0
  9
$ANGDIR
 70
     0
  9
$PDMODE
 70
     0
  9
$PDSIZE
 40
-1.0
  9
$PLINEWID
 40
0.0
  9
$SPLFRAME
 70
     0
  9
$SPLINETYPE
 70
     6
  9
$SPLINESEGS
 70
     8
  9
$HANDSEED
  5
170
  9
$SURFTAB1
 70
     6
  9
$SURFTAB2
 70
     6
  9
$SURFTYPE
 70
     6
  9
$SURFU
 70
     6
  9
$SURFV
 70
     6
  9
$UCSBASE
  2

  9
$UCSNAME
  2

  9
$UCSORG
 10
0.0
 20
0.0
 30
0.0
  9
$UCSXDIR
 10
1.0
 20
0.0
 30
0.0
  9
$UCSYDIR
 10
0.0
 20
1.0
 30
0.0
  9
$UCSORTHOREF
  2

  9
$UCSORTHOVIEW
 70
     0
  9
$UCSORGTOP
 10
0.0
 20
0.0
 30
0.0
  9
$UCSORGBOTTOM
 10
0.0
 20
0.0
 30
0.0
  9
$UCSORGLEFT
 10
0.0
 20
0.0
 30
0.0
  9
$UCSORGRIGHT
 10
0.0
 20
0.0
 30
0.0
  9
$UCSORGFRONT
 10
0.0
 20
0.0
 30
0.0
  9
$UCSORGBACK
 10
0.0
 20
0.0
 30
0.0
  9
$PUCSBASE
  2

  9
$PUCSNAME
  2

  9
$PUCSORG
 10
0.0
 20
0.0
 30
0.0
  9
$PUCSXDIR
 10
1.0
 20
0.0
 30
0.0
  9
$PUCSYDIR
 10
0.0
 20
1.0
 30
0.0
  9
$PUCSORTHOREF
  2

  9
$PUCSORTHOVIEW
 70
     0
  9
$PUCSORGTOP
 10
0.0
 20
0.0
 30
0.0
  9
$PUCSORGBOTTOM
 10
0.0
 20
0.0
 30
0.0
  9
$PUCSORGLEFT
 10
0.0
 20
0.0
 30
0.0
  9
$PUCSORGRIGHT
 10
0.0
 20
0.0
 30
0.0
  9
$PUCSORGFRONT
 10
0.0
 20
0.0
 30
0.0
  9
$PUCSORGBACK
 10
0.0
 20
0.0
 30
0.0
  9
$USERI1
 70
     0
  9
$USERI2
 70
     0
  9
$USERI3
 70
     0
  9
$USERI4
 70
     0
  9
$USERI5
 70
     0
  9
$USERR1
 40
0.0
  9
$USERR2
 40
0.0
  9
$USERR3
 40
0.0
  9
$USERR4
 40
0.0
  9
$USERR5
 40
0.0
  9
$WORLDVIEW
 70
     1
  9
$SHADEDGE
 70
     3
  9
$SHADEDIF
 70
    70
  9
$TILEMODE
 70
     1
  9
$MAXACTVP
 70
    64
  9
$PINSBASE
 10
0.0
 20
0.0
 30
0.0
  9
$PLIMCHECK
 70
     0
  9
$PEXTMIN
 10
1.0000000000E+20
 20
1.0000000000E+20
 30
1.0000000000E+20
  9
$PEXTMAX
 10
-1.0000000000E+20
 20
-1.0000000000E+20
 30
-1.0000000000E+20
  9
$PLIMMIN
 10
0.0
 20
0.0
  9
$PLIMMAX
 10
420.0
 20
297.0
  9
$UNITMODE
 70
     0
  9
$VISRETAIN
 70
     1
  9
$PLINEGEN
 70
     0
  9
$PSLTSCALE
 70
     1
  9
$TREEDEPTH
 70
  3020
  9
$CMLSTYLE
  2
Standard
  9
$CMLJUST
 70
     0
  9
$CMLSCALE
 40
20.0
  9
$PROXYGRAPHICS
 70
     1
  9
$MEASUREMENT
 70
     1
  9
$CELWEIGHT
370
    -1
  9
$ENDCAPS
280
     0
  9
$JOINSTYLE
280
     0
  9
$LWDISPLAY
290
     1
  9
$INSUNITS
 70
     4
  9
$HYPERLINKBASE
  1

  9
$STYLESHEET
  1

  9
$XEDIT
290
     1
  9
$CEPSNTYPE
380
     0
  9
$PSTYLEMODE
290
     1
  9
$FINGERPRINTGUID
  2
{2d2eb276-8dc9-41f9-b19b-cd2087c00392}
  9
$VERSIONGUID
  2
{FAEB1C32-E019-11D5-929B-00C0DF256EC4}
  9
$EXTNAMES
290
     1
  9
$PSVPSCALE
 40
0.0
  9
$OLESTARTUP
290
     0
  0
ENDSEC
  0
SECTION
  2
CLASSES
  0
CLASS
  1
ACDBDICTIONARYWDFLT
  2
AcDbDictionaryWithDefault
  3
ObjectDBX Classes
 90
        0
280
     0
281
     0
  0
CLASS
  1
VISUALSTYLE
  2
AcDbVisualStyle
  3
ObjectDBX Classes
 90
     4095
280
     0
281
     0
  0
CLASS
  1
MATERIAL
  2
AcDbMaterial
  3
ObjectDBX Classes
 90
     1153
280
     0
281
     0
  0
CLASS
  1
SCALE
  2
AcDbScale
  3
ObjectDBX Classes
 90
     1153
280
     0
281
     0
  0
CLASS
  1
TABLESTYLE
  2
AcDbTableStyle
  3
ObjectDBX Classes
 90
     4095
280
     0
281
     0
  0
CLASS
  1
MLEADERSTYLE
  2
AcDbMLeaderStyle
  3
ACDB_MLEADERSTYLE_CLASS
 90
     4095
280
     0
281
     0
  0
CLASS
  1
SUN
  2
AcDbSun
  3
SCENEOE
 90
     1153
280
     0
281
     0
  0
CLASS
  1
ACDBPLACEHOLDER
  2
AcDbPlaceHolder
  3
ObjectDBX Classes
 90
        0
280
     0
281
     0
  0
CLASS
  1
LAYOUT
  2
AcDbLayout
  3
ObjectDBX Classes
 90
        0
280
     0
281
     0
  0
ENDSEC
  0
SECTION
  2
TABLES
  0
TABLE
  2
VPORT
  5
8
330
0
100
AcDbSymbolTable
 70
     1
  0
VPORT
  5
29
330
8
100
AcDbSymbolTableRecord
100
AcDbViewportTableRecord
  2
*Active
 70
     0
 10
0.0
 20
0.0
 11
1.0
 21
1.0
 12
139.7
 22
107.95
 13
0.0
 23
0.0
 14
10.0
 24
10.0
 15
10.0
 25
10.0
 16
0.0
 26
0.0
 36
1.0
 17
0.0
 27
0.0
 37
0.0
 40
215.9
 41
1.2941176471
 42
50.0
 43
0.0
 44
0.0
 50
0.0
 51
0.0
 71
     0
 72
  2000
 73
     1
 74
     3
 75
     0
 76
     0
 77
     0
 78
     0
281
     0
 65
     1
110
0.0
120
0.0
130
0.0
111
1.0
121
0.0
131
0.0
112
0.0
122
1.0
132
0.0
 79
     0
146
0.0
  0
ENDTAB
  0
TABLE
  2
LTYPE
  5
5
330
0
100
AcDbSymbolTable
 70
     6
  0
LTYPE
  5
14
330
5
100
AcDbSymbolTableRecord
100
AcDbLinetypeTableRecord
  2
ByBlock
 70
     0
  3

 72
    65
 73
     0
 40
0.0
  0
LTYPE
  5
15
330
5
100
AcDbSymbolTableRecord
100
AcDbLinetypeTableRecord
  2
ByLayer
 70
     0
  3

 72
    65
 73
     0
 40
0.0
  0
LTYPE
  5
16
330
5
100
AcDbSymbolTableRecord
100
AcDbLinetypeTableRecord
  2
Continuous
 70
     0
  3
Solid line
 72
    65
 73
     0
 40
0.0
  0
LTYPE
  5
6E
330
5
100
AcDbSymbolTableRecord
100
AcDbLinetypeTableRecord
  2
HIDDEN
 70
     0
  3
Hidden __ __ __ __ __ __ __ __ __ __ __ __ __ __
 72
    65
 73
     2
 40
1.905
 49
1.27
 74
     0
 49
-0.635
 74
     0
  0
LTYPE
  5
6F
330
5
100
AcDbSymbolTableRecord
100
AcDbLinetypeTableRecord
  2
PHANTOM
 70
     0
  3
Phantom ______  __  __  ______  __  __  ______
 72
    65
 73
     6
 40
12.7
 49
6.35
 74
     0
 49
-1.27
 74
     0
 49
1.27
 74
     0
 49
-1.27
 74
     0
 49
1.27
 74
     0
 49
-1.27
 74
     0
  0
LTYPE
  5
70
330
5
100
AcDbSymbolTableRecord
100
AcDbLinetypeTableRecord
  2
CENTER
 70
     0
  3
Center ____ _ ____ _ ____ _ ____ _ ____ _ ____
 72
    65
 73
     4
 40
10.16
 49
6.35
 74
     0
 49
-1.27
 74
     0
 49
1.27
 74
     0
 49
-1.27
 74
     0
  0
LTYPE
  5
71
330
5
100
AcDbSymbolTableRecord
100
AcDbLinetypeTableRecord
  2
CENTERX2
 70
     0
  3
Center (2x) ________  __  ________  __  _____
 72
    65
 73
     4
 40
20.32
 49
12.7
 74
     0
 49
-2.54
 74
     0
 49
2.54
 74
     0
 49
-2.54
 74
     0
  0
LTYPE
  5
72
330
5
100
AcDbSymbolTableRecord
100
AcDbLinetypeTableRecord
  2
DOT2
 70
     0
  3
Dot (.5x) ........................................
 72
    65
 73
     2
 40
0.635
 49
0.0
 74
     0
 49
-0.635
 74
     0
  0
ENDTAB
  0
TABLE
  2
LAYER
  5
2
330
0
100
AcDbSymbolTable
 70
    17
  0
LAYER
  5
10
330
2
100
AcDbSymbolTableRecord
100
AcDbLayerTableRecord
  2
0
 70
     0
 62
     7
  6
Continuous
370
    -3
390
F
  0
LAYER
  5
73
330
2
100
AcDbSymbolTableRecord
100
AcDbLayerTableRecord
  2
FORMAT
 70
     0
 62
     7
  6
Continuous
370
    -3
390
F
  0
LAYER
  5
74
330
2
100
AcDbSymbolTableRecord
100
AcDbLayerTableRecord
  2
YARDIMCI_GEOMETRI
 70
     0
 62
    -6
  6
Continuous
290
     0
370
    -3
390
F
  0
LAYER
  5
75
330
2
100
AcDbSymbolTableRecord
100
AcDbLayerTableRecord
  2
SAYFA_CERCEVESI
 70
     0
 62
     7
  6
Continuous
370
    25
390
F
  0
LAYER
  5
76
330
2
100
AcDbSymbolTableRecord
100
AcDbLayerTableRecord
  2
ANTET
 70
     0
 62
     7
  6
Continuous
370
    -3
390
F
  0
LAYER
  5
77
330
2
100
AcDbSymbolTableRecord
100
AcDbLayerTableRecord
  2
OLCU
 70
     0
 62
   150
  6
Continuous
370
    -3
390
F
  0
LAYER
  5
78
330
2
100
AcDbSymbolTableRecord
100
AcDbLayerTableRecord
  2
METIN
 70
     0
 62
    96
  6
Continuous
370
    -3
390
F
  0
LAYER
  5
79
330
2
100
AcDbSymbolTableRecord
100
AcDbLayerTableRecord
  2
BALON
 70
     0
 62
     5
  6
Continuous
370
    -3
390
F
  0
LAYER
  5
7A
330
2
100
AcDbSymbolTableRecord
100
AcDbLayerTableRecord
  2
VURGU
 70
     0
 62
     7
  6
Continuous
370
    -3
390
F
  0
LAYER
  5
7B
330
2
100
AcDbSymbolTableRecord
100
AcDbLayerTableRecord
  2
SILIK
 70
     0
 62
     7
  6
Continuous
370
    -3
390
F
  0
LAYER
  5
7C
330
2
100
AcDbSymbolTableRecord
100
AcDbLayerTableRecord
  2
MODEL
 70
     0
 62
     7
  6
Continuous
370
    -3
390
F
  0
LAYER
  5
7D
330
2
100
AcDbSymbolTableRecord
100
AcDbLayerTableRecord
  2
DETAYLANDıRMA
 70
     0
 62
   190
  6
Continuous
370
    -3
390
F
  0
LAYER
  5
7E
330
2
100
AcDbSymbolTableRecord
100
AcDbLayerTableRecord
  2
TOLERANS
 70
     0
 62
   230
  6
Continuous
370
    -3
390
F
  0
LAYER
  5
7F
330
2
100
AcDbSymbolTableRecord
100
AcDbLayerTableRecord
  2
MERKEZ_CIZGILERI
 70
     0
 62
    30
  6
Continuous
370
    -3
390
F
  0
LAYER
  5
80
330
2
100
AcDbSymbolTableRecord
100
AcDbLayerTableRecord
  2
KESIT-DETAY_CIZGILERI
 70
     0
 62
     7
  6
Continuous
370
    -3
390
F
  0
LAYER
  5
81
330
2
100
AcDbSymbolTableRecord
100
AcDbLayerTableRecord
  2
\U+041E\U+0421\U+0415\U+0412\U+042B\U+0415
 70
     0
 62
     7
  6
Continuous
370
    -3
390
F
  0
LAYER
  5
82
330
2
100
AcDbSymbolTableRecord
100
AcDbLayerTableRecord
  2
\U+0412\U+041E\U+0414\U+042F\U+041D\U+042B\U+0415_\U+0417\U+041D\U+0410\U+041A\U+0418
 70
     0
 62
    11
  6
Continuous
370
    -3
390
F
  0
ENDTAB
  0
TABLE
  2
STYLE
  5
3
330
0
100
AcDbSymbolTable
 70
     1
  0
STYLE
  5
11
330
3
100
AcDbSymbolTableRecord
100
AcDbTextStyleTableRecord
  2
Standard
 70
     0
 40
0.0
 41
1.0
 50
0.0
 71
     0
 42
3.5
  3
txt
  4

  0
ENDTAB
  0
TABLE
  2
VIEW
  5
6
330
0
100
AcDbSymbolTable
 70
     0
  0
ENDTAB
  0
TABLE
  2
UCS
  5
7
330
0
100
AcDbSymbolTable
 70
     0
  0
ENDTAB
  0
TABLE
  2
APPID
  5
9
330
0
100
AcDbSymbolTable
 70
     1
  0
APPID
  5
12
330
9
100
AcDbSymbolTableRecord
100
AcDbRegAppTableRecord
  2
ACAD
 70
     0
  0
ENDTAB
  0
TABLE
  2
DIMSTYLE
  5
A
330
0
100
AcDbSymbolTable
 70
     1
100
AcDbDimStyleTable
  0
DIMSTYLE
105
27
330
A
100
AcDbSymbolTableRecord
100
AcDbDimStyleTableRecord
  2
ISO-25
 70
     0
 41
2.5
 42
0.625
 43
3.75
 44
1.25
 73
     0
 74
     0
 77
     1
 78
     8
140
2.5
141
2.5
143
0.0393700787
147
0.625
171
     3
172
     1
178
     0
271
     2
272
     2
274
     3
278
    44
283
     0
284
     8
340
11
  0
ENDTAB
  0
TABLE
  2
BLOCK_RECORD
  5
1
330
0
100
AcDbSymbolTable
 70
    10
  0
BLOCK_RECORD
  5
1F
330
1
100
AcDbSymbolTableRecord
100
AcDbBlockTableRecord
  2
*Model_Space
340
22
  0
BLOCK_RECORD
  5
1B
330
1
100
AcDbSymbolTableRecord
100
AcDbBlockTableRecord
  2
*Paper_Space
340
1E
  0
BLOCK_RECORD
  5
23
330
1
100
AcDbSymbolTableRecord
100
AcDbBlockTableRecord
  2
*Paper_Space0
340
26
  0
BLOCK_RECORD
  5
97
330
1
100
AcDbSymbolTableRecord
100
AcDbBlockTableRecord
  2
SW_CENTERMARKSYMBOL_0
340
0
102
{BLKREFS
331
A2
102
}
  0
BLOCK_RECORD
  5
A3
330
1
100
AcDbSymbolTableRecord
100
AcDbBlockTableRecord
  2
SW_CENTERMARKSYMBOL_1
340
0
102
{BLKREFS
331
AE
102
}
  0
BLOCK_RECORD
  5
AF
330
1
100
AcDbSymbolTableRecord
100
AcDbBlockTableRecord
  2
SW_CENTERMARKSYMBOL_2
340
0
102
{BLKREFS
331
BA
102
}
  0
BLOCK_RECORD
  5
BB
330
1
100
AcDbSymbolTableRecord
100
AcDbBlockTableRecord
  2
SW_CENTERMARKSYMBOL_3
340
0
102
{BLKREFS
331
C6
102
}
  0
BLOCK_RECORD
  5
C7
330
1
100
AcDbSymbolTableRecord
100
AcDbBlockTableRecord
  2
SW_CENTERMARKSYMBOL_4
340
0
102
{BLKREFS
331
D2
102
}
  0
BLOCK_RECORD
  5
D3
330
1
100
AcDbSymbolTableRecord
100
AcDbBlockTableRecord
  2
SW_CENTERMARKSYMBOL_5
340
0
102
{BLKREFS
331
DE
102
}
  0
BLOCK_RECORD
  5
DF
330
1
100
AcDbSymbolTableRecord
100
AcDbBlockTableRecord
  2
SW_CENTERMARKSYMBOL_6
340
0
102
{BLKREFS
331
EA
102
}
  0
BLOCK_RECORD
  5
EB
330
1
100
AcDbSymbolTableRecord
100
AcDbBlockTableRecord
  2
SW_CENTERMARKSYMBOL_7
340
0
102
{BLKREFS
331
F6
102
}
  0
BLOCK_RECORD
  5
F7
330
1
100
AcDbSymbolTableRecord
100
AcDbBlockTableRecord
  2
SW_CENTERMARKSYMBOL_8
340
0
102
{BLKREFS
331
102
102
}
  0
ENDTAB
  0
ENDSEC
  0
SECTION
  2
BLOCKS
  0
BLOCK
  5
20
330
1F
100
AcDbEntity
  8
0
100
AcDbBlockBegin
  2
*Model_Space
 70
     0
 10
0.0
 20
0.0
 30
0.0
  3
*Model_Space
  1

  0
ENDBLK
  5
21
330
1F
100
AcDbEntity
  8
0
100
AcDbBlockEnd
  0
BLOCK
  5
1C
330
1B
100
AcDbEntity
 67
     1
  8
0
100
AcDbBlockBegin
  2
*Paper_Space
 70
     0
 10
0.0
 20
0.0
 30
0.0
  3
*Paper_Space
  1

  0
ENDBLK
  5
1D
330
1B
100
AcDbEntity
 67
     1
  8
0
100
AcDbBlockEnd
  0
BLOCK
  5
24
330
23
100
AcDbEntity
  8
0
100
AcDbBlockBegin
  2
*Paper_Space0
 70
     0
 10
0.0
 20
0.0
 30
0.0
  3
*Paper_Space0
  1

  0
ENDBLK
  5
25
330
23
100
AcDbEntity
  8
0
100
AcDbBlockEnd
  0
BLOCK
  5
98
330
97
100
AcDbEntity
  8
0
100
AcDbBlockBegin
  2
SW_CENTERMARKSYMBOL_0
 70
     0
 10
0.0
 20
0.0
 30
0.0
  3
SW_CENTERMARKSYMBOL_0
  1

  0
LINE
  5
9A
330
97
100
AcDbEntity
  8
FORMAT
 62
     0
100
AcDbLine
 10
0.0
 20
0.0
 30
0.0
 11
0.0
 21
2.5
 31
0.0
  0
LINE
  5
9B
330
97
100
AcDbEntity
  8
FORMAT
 62
     0
100
AcDbLine
 10
0.0
 20
0.0
 30
0.0
 11
-2.5
 21
0.0
 31
0.0
  0
LINE
  5
9C
330
97
100
AcDbEntity
  8
FORMAT
 62
     0
100
AcDbLine
 10
0.0
 20
0.0
 30
0.0
 11
0.0
 21
-2.5
 31
0.0
  0
LINE
  5
9D
330
97
100
AcDbEntity
  8
FORMAT
 62
     0
100
AcDbLine
 10
0.0
 20
0.0
 30
0.0
 11
2.5
 21
0.0
 31
0.0
  0
LINE
  5
9E
330
97
100
AcDbEntity
  8
FORMAT
 62
     0
100
AcDbLine
 10
0.0
 20
5.0
 30
0.0
 11
0.0
 21
145.0
 31
0.0
  0
LINE
  5
9F
330
97
100
AcDbEntity
  8
FORMAT
 62
     0
100
AcDbLine
 10
-5.0
 20
0.0
 30
0.0
 11
-145.0
 21
0.0
 31
0.0
  0
LINE
  5
A0
330
97
100
AcDbEntity
  8
FORMAT
 62
     0
100
AcDbLine
 10
0.0
 20
-5.0
 30
0.0
 11
0.0
 21
-145.0
 31
0.0
  0
LINE
  5
A1
330
97
100
AcDbEntity
  8
FORMAT
 62
     0
100
AcDbLine
 10
5.0
 20
0.0
 30
0.0
 11
145.0
 21
0.0
 31
0.0
  0
ENDBLK
  5
99
330
97
100
AcDbEntity
  8
0
100
AcDbBlockEnd
  0
BLOCK
  5
A4
330
A3
100
AcDbEntity
  8
0
100
AcDbBlockBegin
  2
SW_CENTERMARKSYMBOL_1
 70
     0
 10
0.0
 20
0.0
 30
0.0
  3
SW_CENTERMARKSYMBOL_1
  1

  0
LINE
  5
A6
330
A3
100
AcDbEntity
  8
FORMAT
 62
     0
100
AcDbLine
 10
0.0
 20
0.0
 30
0.0
 11
0.0
 21
2.5
 31
0.0
  0
LINE
  5
A7
330
A3
100
AcDbEntity
  8
FORMAT
 62
     0
100
AcDbLine
 10
0.0
 20
0.0
 30
0.0
 11
-2.5
 21
0.0
 31
0.0
  0
LINE
  5
A8
330
A3
100
AcDbEntity
  8
FORMAT
 62
     0
100
AcDbLine
 10
0.0
 20
0.0
 30
0.0
 11
0.0
 21
-2.5
 31
0.0
  0
LINE
  5
A9
330
A3
100
AcDbEntity
  8
FORMAT
 62
     0
100
AcDbLine
 10
0.0
 20
0.0
 30
0.0
 11
2.5
 21
0.0
 31
0.0
  0
LINE
  5
AA
330
A3
100
AcDbEntity
  8
FORMAT
 62
     0
100
AcDbLine
 10
0.0
 20
5.0
 30
0.0
 11
0.0
 21
13.5
 31
0.0
  0
LINE
  5
AB
330
A3
100
AcDbEntity
  8
FORMAT
 62
     0
100
AcDbLine
 10
-5.0
 20
0.0
 30
0.0
 11
-13.5
 21
0.0
 31
0.0
  0
LINE
  5
AC
330
A3
100
AcDbEntity
  8
FORMAT
 62
     0
100
AcDbLine
 10
0.0
 20
-5.0
 30
0.0
 11
0.0
 21
-13.5
 31
0.0
  0
LINE
  5
AD
330
A3
100
AcDbEntity
  8
FORMAT
 62
     0
100
AcDbLine
 10
5.0
 20
0.0
 30
0.0
 11
13.5
 21
0.0
 31
0.0
  0
ENDBLK
  5
A5
330
A3
100
AcDbEntity
  8
0
100
AcDbBlockEnd
  0
BLOCK
  5
B0
330
AF
100
AcDbEntity
  8
0
100
AcDbBlockBegin
  2
SW_CENTERMARKSYMBOL_2
 70
     0
 10
0.0
 20
0.0
 30
0.0
  3
SW_CENTERMARKSYMBOL_2
  1

  0
LINE
  5
B2
330
AF
100
AcDbEntity
  8
FORMAT
 62
     0
100
AcDbLine
 10
0.0
 20
0.0
 30
0.0
 11
0.0
 21
2.5
 31
0.0
  0
LINE
  5
B3
330
AF
100
AcDbEntity
  8
FORMAT
 62
     0
100
AcDbLine
 10
0.0
 20
0.0
 30
0.0
 11
-2.5
 21
0.0
 31
0.0
  0
LINE
  5
B4
330
AF
100
AcDbEntity
  8
FORMAT
 62
     0
100
AcDbLine
 10
0.0
 20
0.0
 30
0.0
 11
0.0
 21
-2.5
 31
0.0
  0
LINE
  5
B5
330
AF
100
AcDbEntity
  8
FORMAT
 62
     0
100
AcDbLine
 10
0.0
 20
0.0
 30
0.0
 11
2.5
 21
0.0
 31
0.0
  0
LINE
  5
B6
330
AF
100
AcDbEntity
  8
FORMAT
 62
     0
100
AcDbLine
 10
0.0
 20
5.0
 30
0.0
 11
0.0
 21
13.5
 31
0.0
  0
LINE
  5
B7
330
AF
100
AcDbEntity
  8
FORMAT
 62
     0
100
AcDbLine
 10
-5.0
 20
0.0
 30
0.0
 11
-13.5
 21
0.0
 31
0.0
  0
LINE
  5
B8
330
AF
100
AcDbEntity
  8
FORMAT
 62
     0
100
AcDbLine
 10
0.0
 20
-5.0
 30
0.0
 11
0.0
 21
-13.5
 31
0.0
  0
LINE
  5
B9
330
AF
100
AcDbEntity
  8
FORMAT
 62
     0
100
AcDbLine
 10
5.0
 20
0.0
 30
0.0
 11
13.5
 21
0.0
 31
0.0
  0
ENDBLK
  5
B1
330
AF
100
AcDbEntity
  8
0
100
AcDbBlockEnd
  0
BLOCK
  5
BC
330
BB
100
AcDbEntity
  8
0
100
AcDbBlockBegin
  2
SW_CENTERMARKSYMBOL_3
 70
     0
 10
0.0
 20
0.0
 30
0.0
  3
SW_CENTERMARKSYMBOL_3
  1

  0
LINE
  5
BE
330
BB
100
AcDbEntity
  8
FORMAT
 62
     0
100
AcDbLine
 10
0.0
 20
0.0
 30
0.0
 11
0.0
 21
2.5
 31
0.0
  0
LINE
  5
BF
330
BB
100
AcDbEntity
  8
FORMAT
 62
     0
100
AcDbLine
 10
0.0
 20
0.0
 30
0.0
 11
-2.5
 21
0.0
 31
0.0
  0
LINE
  5
C0
330
BB
100
AcDbEntity
  8
FORMAT
 62
     0
100
AcDbLine
 10
0.0
 20
0.0
 30
0.0
 11
0.0
 21
-2.5
 31
0.0
  0
LINE
  5
C1
330
BB
100
AcDbEntity
  8
FORMAT
 62
     0
100
AcDbLine
 10
0.0
 20
0.0
 30
0.0
 11
2.5
 21
0.0
 31
0.0
  0
LINE
  5
C2
330
BB
100
AcDbEntity
  8
FORMAT
 62
     0
100
AcDbLine
 10
0.0
 20
5.0
 30
0.0
 11
0.0
 21
13.5
 31
0.0
  0
LINE
  5
C3
330
BB
100
AcDbEntity
  8
FORMAT
 62
     0
100
AcDbLine
 10
-5.0
 20
0.0
 30
0.0
 11
-13.5
 21
0.0
 31
0.0
  0
LINE
  5
C4
330
BB
100
AcDbEntity
  8
FORMAT
 62
     0
100
AcDbLine
 10
0.0
 20
-5.0
 30
0.0
 11
0.0
 21
-13.5
 31
0.0
  0
LINE
  5
C5
330
BB
100
AcDbEntity
  8
FORMAT
 62
     0
100
AcDbLine
 10
5.0
 20
0.0
 30
0.0
 11
13.5
 21
0.0
 31
0.0
  0
ENDBLK
  5
BD
330
BB
100
AcDbEntity
  8
0
100
AcDbBlockEnd
  0
BLOCK
  5
C8
330
C7
100
AcDbEntity
  8
0
100
AcDbBlockBegin
  2
SW_CENTERMARKSYMBOL_4
 70
     0
 10
0.0
 20
0.0
 30
0.0
  3
SW_CENTERMARKSYMBOL_4
  1

  0
LINE
  5
CA
330
C7
100
AcDbEntity
  8
FORMAT
 62
     0
100
AcDbLine
 10
0.0
 20
0.0
 30
0.0
 11
0.0
 21
2.5
 31
0.0
  0
LINE
  5
CB
330
C7
100
AcDbEntity
  8
FORMAT
 62
     0
100
AcDbLine
 10
0.0
 20
0.0
 30
0.0
 11
-2.5
 21
0.0
 31
0.0
  0
LINE
  5
CC
330
C7
100
AcDbEntity
  8
FORMAT
 62
     0
100
AcDbLine
 10
0.0
 20
0.0
 30
0.0
 11
0.0
 21
-2.5
 31
0.0
  0
LINE
  5
CD
330
C7
100
AcDbEntity
  8
FORMAT
 62
     0
100
AcDbLine
 10
0.0
 20
0.0
 30
0.0
 11
2.5
 21
0.0
 31
0.0
  0
LINE
  5
CE
330
C7
100
AcDbEntity
  8
FORMAT
 62
     0
100
AcDbLine
 10
0.0
 20
5.0
 30
0.0
 11
0.0
 21
13.5
 31
0.0
  0
LINE
  5
CF
330
C7
100
AcDbEntity
  8
FORMAT
 62
     0
100
AcDbLine
 10
-5.0
 20
0.0
 30
0.0
 11
-13.5
 21
0.0
 31
0.0
  0
LINE
  5
D0
330
C7
100
AcDbEntity
  8
FORMAT
 62
     0
100
AcDbLine
 10
0.0
 20
-5.0
 30
0.0
 11
0.0
 21
-13.5
 31
0.0
  0
LINE
  5
D1
330
C7
100
AcDbEntity
  8
FORMAT
 62
     0
100
AcDbLine
 10
5.0
 20
0.0
 30
0.0
 11
13.5
 21
0.0
 31
0.0
  0
ENDBLK
  5
C9
330
C7
100
AcDbEntity
  8
0
100
AcDbBlockEnd
  0
BLOCK
  5
D4
330
D3
100
AcDbEntity
  8
0
100
AcDbBlockBegin
  2
SW_CENTERMARKSYMBOL_5
 70
     0
 10
0.0
 20
0.0
 30
0.0
  3
SW_CENTERMARKSYMBOL_5
  1

  0
LINE
  5
D6
330
D3
100
AcDbEntity
  8
FORMAT
 62
     0
100
AcDbLine
 10
0.0
 20
0.0
 30
0.0
 11
0.0
 21
2.5
 31
0.0
  0
LINE
  5
D7
330
D3
100
AcDbEntity
  8
FORMAT
 62
     0
100
AcDbLine
 10
0.0
 20
0.0
 30
0.0
 11
-2.5
 21
0.0
 31
0.0
  0
LINE
  5
D8
330
D3
100
AcDbEntity
  8
FORMAT
 62
     0
100
AcDbLine
 10
0.0
 20
0.0
 30
0.0
 11
0.0
 21
-2.5
 31
0.0
  0
LINE
  5
D9
330
D3
100
AcDbEntity
  8
FORMAT
 62
     0
100
AcDbLine
 10
0.0
 20
0.0
 30
0.0
 11
2.5
 21
0.0
 31
0.0
  0
LINE
  5
DA
330
D3
100
AcDbEntity
  8
FORMAT
 62
     0
100
AcDbLine
 10
0.0
 20
5.0
 30
0.0
 11
0.0
 21
14.5
 31
0.0
  0
LINE
  5
DB
330
D3
100
AcDbEntity
  8
FORMAT
 62
     0
100
AcDbLine
 10
-5.0
 20
0.0
 30
0.0
 11
-14.5
 21
0.0
 31
0.0
  0
LINE
  5
DC
330
D3
100
AcDbEntity
  8
FORMAT
 62
     0
100
AcDbLine
 10
0.0
 20
-5.0
 30
0.0
 11
0.0
 21
-14.5
 31
0.0
  0
LINE
  5
DD
330
D3
100
AcDbEntity
  8
FORMAT
 62
     0
100
AcDbLine
 10
5.0
 20
0.0
 30
0.0
 11
14.5
 21
0.0
 31
0.0
  0
ENDBLK
  5
D5
330
D3
100
AcDbEntity
  8
0
100
AcDbBlockEnd
  0
BLOCK
  5
E0
330
DF
100
AcDbEntity
  8
0
100
AcDbBlockBegin
  2
SW_CENTERMARKSYMBOL_6
 70
     0
 10
0.0
 20
0.0
 30
0.0
  3
SW_CENTERMARKSYMBOL_6
  1

  0
LINE
  5
E2
330
DF
100
AcDbEntity
  8
FORMAT
 62
     0
100
AcDbLine
 10
0.0
 20
0.0
 30
0.0
 11
0.0
 21
2.5
 31
0.0
  0
LINE
  5
E3
330
DF
100
AcDbEntity
  8
FORMAT
 62
     0
100
AcDbLine
 10
0.0
 20
0.0
 30
0.0
 11
-2.5
 21
0.0
 31
0.0
  0
LINE
  5
E4
330
DF
100
AcDbEntity
  8
FORMAT
 62
     0
100
AcDbLine
 10
0.0
 20
0.0
 30
0.0
 11
0.0
 21
-2.5
 31
0.0
  0
LINE
  5
E5
330
DF
100
AcDbEntity
  8
FORMAT
 62
     0
100
AcDbLine
 10
0.0
 20
0.0
 30
0.0
 11
2.5
 21
0.0
 31
0.0
  0
LINE
  5
E6
330
DF
100
AcDbEntity
  8
FORMAT
 62
     0
100
AcDbLine
 10
0.0
 20
5.0
 30
0.0
 11
0.0
 21
14.5
 31
0.0
  0
LINE
  5
E7
330
DF
100
AcDbEntity
  8
FORMAT
 62
     0
100
AcDbLine
 10
-5.0
 20
0.0
 30
0.0
 11
-14.5
 21
0.0
 31
0.0
  0
LINE
  5
E8
330
DF
100
AcDbEntity
  8
FORMAT
 62
     0
100
AcDbLine
 10
0.0
 20
-5.0
 30
0.0
 11
0.0
 21
-14.5
 31
0.0
  0
LINE
  5
E9
330
DF
100
AcDbEntity
  8
FORMAT
 62
     0
100
AcDbLine
 10
5.0
 20
0.0
 30
0.0
 11
14.5
 21
0.0
 31
0.0
  0
ENDBLK
  5
E1
330
DF
100
AcDbEntity
  8
0
100
AcDbBlockEnd
  0
BLOCK
  5
EC
330
EB
100
AcDbEntity
  8
0
100
AcDbBlockBegin
  2
SW_CENTERMARKSYMBOL_7
 70
     0
 10
0.0
 20
0.0
 30
0.0
  3
SW_CENTERMARKSYMBOL_7
  1

  0
LINE
  5
EE
330
EB
100
AcDbEntity
  8
FORMAT
 62
     0
100
AcDbLine
 10
0.0
 20
0.0
 30
0.0
 11
0.0
 21
2.5
 31
0.0
  0
LINE
  5
EF
330
EB
100
AcDbEntity
  8
FORMAT
 62
     0
100
AcDbLine
 10
0.0
 20
0.0
 30
0.0
 11
-2.5
 21
0.0
 31
0.0
  0
LINE
  5
F0
330
EB
100
AcDbEntity
  8
FORMAT
 62
     0
100
AcDbLine
 10
0.0
 20
0.0
 30
0.0
 11
0.0
 21
-2.5
 31
0.0
  0
LINE
  5
F1
330
EB
100
AcDbEntity
  8
FORMAT
 62
     0
100
AcDbLine
 10
0.0
 20
0.0
 30
0.0
 11
2.5
 21
0.0
 31
0.0
  0
LINE
  5
F2
330
EB
100
AcDbEntity
  8
FORMAT
 62
     0
100
AcDbLine
 10
0.0
 20
5.0
 30
0.0
 11
0.0
 21
14.5
 31
0.0
  0
LINE
  5
F3
330
EB
100
AcDbEntity
  8
FORMAT
 62
     0
100
AcDbLine
 10
-5.0
 20
0.0
 30
0.0
 11
-14.5
 21
0.0
 31
0.0
  0
LINE
  5
F4
330
EB
100
AcDbEntity
  8
FORMAT
 62
     0
100
AcDbLine
 10
0.0
 20
-5.0
 30
0.0
 11
0.0
 21
-14.5
 31
0.0
  0
LINE
  5
F5
330
EB
100
AcDbEntity
  8
FORMAT
 62
     0
100
AcDbLine
 10
5.0
 20
0.0
 30
0.0
 11
14.5
 21
0.0
 31
0.0
  0
ENDBLK
  5
ED
330
EB
100
AcDbEntity
  8
0
100
AcDbBlockEnd
  0
BLOCK
  5
F8
330
F7
100
AcDbEntity
  8
0
100
AcDbBlockBegin
  2
SW_CENTERMARKSYMBOL_8
 70
     0
 10
0.0
 20
0.0
 30
0.0
  3
SW_CENTERMARKSYMBOL_8
  1

  0
LINE
  5
FA
330
F7
100
AcDbEntity
  8
FORMAT
 62
     0
100
AcDbLine
 10
0.0
 20
0.0
 30
0.0
 11
0.0
 21
2.5
 31
0.0
  0
LINE
  5
FB
330
F7
100
AcDbEntity
  8
FORMAT
 62
     0
100
AcDbLine
 10
0.0
 20
0.0
 30
0.0
 11
-2.5
 21
0.0
 31
0.0
  0
LINE
  5
FC
330
F7
100
AcDbEntity
  8
FORMAT
 62
     0
100
AcDbLine
 10
0.0
 20
0.0
 30
0.0
 11
0.0
 21
-2.5
 31
0.0
  0
LINE
  5
FD
330
F7
100
AcDbEntity
  8
FORMAT
 62
     0
100
AcDbLine
 10
0.0
 20
0.0
 30
0.0
 11
2.5
 21
0.0
 31
0.0
  0
LINE
  5
FE
330
F7
100
AcDbEntity
  8
FORMAT
 62
     0
100
AcDbLine
 10
0.0
 20
5.0
 30
0.0
 11
0.0
 21
14.5
 31
0.0
  0
LINE
  5
FF
330
F7
100
AcDbEntity
  8
FORMAT
 62
     0
100
AcDbLine
 10
-5.0
 20
0.0
 30
0.0
 11
-14.5
 21
0.0
 31
0.0
  0
LINE
  5
100
330
F7
100
AcDbEntity
  8
FORMAT
 62
     0
100
AcDbLine
 10
0.0
 20
-5.0
 30
0.0
 11
0.0
 21
-14.5
 31
0.0
  0
LINE
  5
101
330
F7
100
AcDbEntity
  8
FORMAT
 62
     0
100
AcDbLine
 10
5.0
 20
0.0
 30
0.0
 11
14.5
 21
0.0
 31
0.0
  0
ENDBLK
  5
F9
330
F7
100
AcDbEntity
  8
0
100
AcDbBlockEnd
  0
ENDSEC
  0
SECTION
  2
ENTITIES
  0
CIRCLE
  5
83
330
1F
100
AcDbEntity
  8
0
  6
Continuous
 62
     7
370
    25
100
AcDbCircle
 10
20.325246773
 20
102.0068056506
 30
0.0
 40
12.0
  0
CIRCLE
  5
84
330
1F
100
AcDbEntity
  8
0
  6
Continuous
 62
     7
370
    25
100
AcDbCircle
 10
226.2876799231
 20
16.6943725004
 30
0.0
 40
12.00000000000003
  0
CIRCLE
  5
85
330
1F
100
AcDbEntity
  8
0
  6
Continuous
 62
     7
370
    25
100
AcDbCircle
 10
226.2876799231
 20
187.3192388008
 30
0.0
 40
12.00000000000003
  0
CIRCLE
  5
86
330
1F
100
AcDbEntity
  8
0
  6
Continuous
 62
     7
370
    25
100
AcDbCircle
 10
140.975246773
 20
222.6568056506
 30
0.0
 40
12.0
  0
CIRCLE
  5
87
330
1F
100
AcDbEntity
  8
0
  6
Continuous
 62
     7
370
    25
100
AcDbCircle
 10
140.975246773
 20
102.0068056506
 30
0.0
 40
141.4999999999999
  0
CIRCLE
  5
88
330
1F
100
AcDbEntity
  8
0
  6
Continuous
 62
     7
370
    25
100
AcDbCircle
 10
140.975246773
 20
102.0068056506
 30
0.0
 40
95.00000000000003
  0
CIRCLE
  5
89
330
1F
100
AcDbEntity
  8
0
  6
Continuous
 62
     7
370
    25
100
AcDbCircle
 10
140.975246773
 20
-18.6431943494
 30
0.0
 40
12.0
  0
CIRCLE
  5
8A
330
1F
100
AcDbEntity
  8
0
  6
Continuous
 62
     7
370
    25
100
AcDbCircle
 10
261.625246773
 20
102.0068056506
 30
0.0
 40
12.0
  0
CIRCLE
  5
8B
330
1F
100
AcDbEntity
  8
0
  6
Continuous
 62
     7
370
    25
100
AcDbCircle
 10
55.6628136228
 20
16.6943725004
 30
0.0
 40
12.0
  0
CIRCLE
  5
8C
330
1F
100
AcDbEntity
  8
0
  6
Continuous
 62
     7
370
    25
100
AcDbCircle
 10
55.6628136228
 20
187.3192388008
 30
0.0
 40
11.99999999999998
  0
CIRCLE
  5
8D
330
1F
100
AcDbEntity
  8
0
  6
Continuous
 62
     7
370
    25
100
AcDbCircle
 10
140.975246773
 20
-18.6431943494
 30
0.0
 40
11.00000000000003
  0
CIRCLE
  5
8E
330
1F
100
AcDbEntity
  8
0
  6
Continuous
 62
     7
370
    25
100
AcDbCircle
 10
140.975246773
 20
102.0068056506
 30
0.0
 40
94.00000000000003
  0
CIRCLE
  5
8F
330
1F
100
AcDbEntity
  8
0
  6
Continuous
 62
     7
370
    25
100
AcDbCircle
 10
140.975246773
 20
102.0068056506
 30
0.0
 40
142.4999999999999
  0
CIRCLE
  5
90
330
1F
100
AcDbEntity
  8
0
  6
Continuous
 62
     7
370
    25
100
AcDbCircle
 10
140.975246773
 20
222.6568056506
 30
0.0
 40
11.0
  0
CIRCLE
  5
91
330
1F
100
AcDbEntity
  8
0
  6
Continuous
 62
     7
370
    25
100
AcDbCircle
 10
226.2876799231
 20
187.3192388008
 30
0.0
 40
11.00000000000003
  0
CIRCLE
  5
92
330
1F
100
AcDbEntity
  8
0
  6
Continuous
 62
     7
370
    25
100
AcDbCircle
 10
55.6628136228
 20
187.3192388008
 30
0.0
 40
10.99999999999999
  0
CIRCLE
  5
93
330
1F
100
AcDbEntity
  8
0
  6
Continuous
 62
     7
370
    25
100
AcDbCircle
 10
55.6628136228
 20
16.6943725004
 30
0.0
 40
11.0
  0
CIRCLE
  5
94
330
1F
100
AcDbEntity
  8
0
  6
Continuous
 62
     7
370
    25
100
AcDbCircle
 10
261.625246773
 20
102.0068056506
 30
0.0
 40
11.0
  0
CIRCLE
  5
95
330
1F
100
AcDbEntity
  8
0
  6
Continuous
 62
     7
370
    25
100
AcDbCircle
 10
20.325246773
 20
102.0068056506
 30
0.0
 40
11.0
  0
CIRCLE
  5
96
330
1F
100
AcDbEntity
  8
0
  6
Continuous
 62
     7
370
    25
100
AcDbCircle
 10
226.2876799231
 20
16.6943725004
 30
0.0
 40
11.00000000000003
  0
INSERT
  5
A2
330
1F
100
AcDbEntity
  8
FORMAT
 62
     7
100
AcDbBlockReference
  2
SW_CENTERMARKSYMBOL_0
 10
140.975246773
 20
102.0068056506
 30
0.0
  0
INSERT
  5
AE
330
1F
100
AcDbEntity
  8
FORMAT
 62
     7
100
AcDbBlockReference
  2
SW_CENTERMARKSYMBOL_1
 10
140.975246773
 20
222.6568056506
 30
0.0
  0
INSERT
  5
BA
330
1F
100
AcDbEntity
  8
FORMAT
 62
     7
100
AcDbBlockReference
  2
SW_CENTERMARKSYMBOL_2
 10
226.2876799231
 20
187.3192388008
 30
0.0
  0
INSERT
  5
C6
330
1F
100
AcDbEntity
  8
FORMAT
 62
     7
100
AcDbBlockReference
  2
SW_CENTERMARKSYMBOL_3
 10
261.625246773
 20
102.0068056506
 30
0.0
  0
INSERT
  5
D2
330
1F
100
AcDbEntity
  8
FORMAT
 62
     7
100
AcDbBlockReference
  2
SW_CENTERMARKSYMBOL_4
 10
226.2876799231
 20
16.6943725004
 30
0.0
  0
INSERT
  5
DE
330
1F
100
AcDbEntity
  8
FORMAT
 62
     7
100
AcDbBlockReference
  2
SW_CENTERMARKSYMBOL_5
 10
55.6628136228
 20
187.3192388008
 30
0.0
  0
INSERT
  5
EA
330
1F
100
AcDbEntity
  8
FORMAT
 62
     7
100
AcDbBlockReference
  2
SW_CENTERMARKSYMBOL_6
 10
55.6628136228
 20
16.6943725004
 30
0.0
  0
INSERT
  5
F6
330
1F
100
AcDbEntity
  8
FORMAT
 62
     7
100
AcDbBlockReference
  2
SW_CENTERMARKSYMBOL_7
 10
20.325246773
 20
102.0068056506
 30
0.0
  0
INSERT
  5
102
330
1F
100
AcDbEntity
  8
FORMAT
 62
     7
100
AcDbBlockReference
  2
SW_CENTERMARKSYMBOL_8
 10
140.975246773
 20
-18.6431943494
 30
0.0
  0
LINE
  5
103
330
1F
100
AcDbEntity
  8
0
  6
Continuous
 62
     7
370
    25
100
AcDbLine
 10
-205.4061336787
 20
244.5068056506
 30
0.0
 11
-227.4061336787
 21
244.5068056506
 31
0.0
  0
LINE
  5
104
330
1F
100
AcDbEntity
  8
0
  6
Continuous
 62
     7
370
    25
100
AcDbLine
 10
-227.4061336787
 20
-40.4931943494
 30
0.0
 11
-205.4061336787
 21
-40.4931943494
 31
0.0
  0
ARC
  5
105
330
1F
100
AcDbEntity
  8
0
  6
Continuous
 62
     7
370
    25
100
AcDbCircle
 10
-205.4061336787
 20
-39.4931943494
 30
0.0
 40
1.0
100
AcDbArc
 50
270.0
 51
0.0
  0
ARC
  5
106
330
1F
100
AcDbEntity
  8
0
  6
Continuous
 62
     7
370
    25
100
AcDbCircle
 10
-205.4061336787
 20
243.5068056506
 30
0.0
 40
1.0
100
AcDbArc
 50
0.0
 51
90.0
  0
ARC
  5
107
330
1F
100
AcDbEntity
  8
0
  6
Continuous
 62
     7
370
    25
100
AcDbCircle
 10
-227.4061336787
 20
-39.4931943494
 30
0.0
 40
1.0
100
AcDbArc
 50
180.0
 51
270.0
  0
ARC
  5
108
330
1F
100
AcDbEntity
  8
0
  6
Continuous
 62
     7
370
    25
100
AcDbCircle
 10
-227.4061336787
 20
243.5068056506
 30
0.0
 40
1.0
100
AcDbArc
 50
90.0
 51
180.0
  0
LINE
  5
109
330
1F
100
AcDbEntity
  8
0
  6
Continuous
 62
     7
370
    25
100
AcDbLine
 10
-204.4061336787
 20
102.0068056506
 30
0.0
 11
-204.4061336787
 21
-39.4931943494
 31
0.0
  0
LINE
  5
10A
330
1F
100
AcDbEntity
  8
0
  6
Continuous
 62
     7
370
    25
100
AcDbLine
 10
-204.4061336787
 20
243.5068056506
 30
0.0
 11
-204.4061336787
 21
102.0068056506
 31
0.0
  0
LINE
  5
10B
330
1F
100
AcDbEntity
  8
0
  6
Continuous
 62
     7
370
    25
100
AcDbLine
 10
-228.4061336787
 20
102.0068056506
 30
0.0
 11
-228.4061336787
 21
243.5068056506
 31
0.0
  0
LINE
  5
10C
330
1F
100
AcDbEntity
  8
0
  6
Continuous
 62
     7
370
    25
100
AcDbLine
 10
-228.4061336787
 20
-39.4931943494
 30
0.0
 11
-228.4061336787
 21
102.0068056506
 31
0.0
  0
LINE
  5
10D
330
1F
100
AcDbEntity
  8
0
  6
Continuous
 62
     1
370
    25
100
AcDbLine
 10
-227.4061336787
 20
102.0068056506
 30
0.0
 11
-227.4061336787
 21
-40.4931943494
 31
0.0
  0
LINE
  5
10E
330
1F
100
AcDbEntity
  8
0
  6
Continuous
 62
     1
370
    25
100
AcDbLine
 10
-227.4061336787
 20
244.5068056506
 30
0.0
 11
-227.4061336787
 21
102.0068056506
 31
0.0
  0
LINE
  5
10F
330
1F
100
AcDbEntity
  8
0
  6
Continuous
 62
     1
370
    25
100
AcDbLine
 10
-205.4061336787
 20
102.0068056506
 30
0.0
 11
-205.4061336787
 21
244.5068056506
 31
0.0
  0
LINE
  5
110
330
1F
100
AcDbEntity
  8
0
  6
Continuous
 62
     1
370
    25
100
AcDbLine
 10
-205.4061336787
 20
-40.4931943494
 30
0.0
 11
-205.4061336787
 21
102.0068056506
 31
0.0
  0
LINE
  5
111
330
1F
100
AcDbEntity
  8
0
  6
Continuous
 62
     7
370
    25
100
AcDbLine
 10
449.5128988483
 20
-40.4931943494
 30
0.0
 11
471.5128988483
 21
-40.4931943494
 31
0.0
  0
LINE
  5
112
330
1F
100
AcDbEntity
  8
0
  6
Continuous
 62
     7
370
    25
100
AcDbLine
 10
471.5128988483
 20
244.5068056506
 30
0.0
 11
449.5128988483
 21
244.5068056506
 31
0.0
  0
ARC
  5
113
330
1F
100
AcDbEntity
  8
0
  6
Continuous
 62
     7
370
    25
100
AcDbCircle
 10
449.5128988483
 20
243.5068056506
 30
0.0
 40
1.0
100
AcDbArc
 50
90.0
 51
180.0
  0
ARC
  5
114
330
1F
100
AcDbEntity
  8
0
  6
Continuous
 62
     7
370
    25
100
AcDbCircle
 10
449.5128988483
 20
-39.4931943494
 30
0.0
 40
1.0
100
AcDbArc
 50
180.0
 51
270.0
  0
ARC
  5
115
330
1F
100
AcDbEntity
  8
0
  6
Continuous
 62
     7
370
    25
100
AcDbCircle
 10
471.5128988483
 20
243.5068056506
 30
0.0
 40
1.0
100
AcDbArc
 50
0.0
 51
90.0
  0
ARC
  5
116
330
1F
100
AcDbEntity
  8
0
  6
Continuous
 62
     7
370
    25
100
AcDbCircle
 10
471.5128988483
 20
-39.4931943494
 30
0.0
 40
1.0
100
AcDbArc
 50
270.0
 51
0.0
  0
LINE
  5
117
330
1F
100
AcDbEntity
  8
0
  6
Continuous
 62
     7
370
    25
100
AcDbLine
 10
448.5128988483
 20
-39.4931943494
 30
0.0
 11
448.5128988483
 21
243.5068056506
 31
0.0
  0
LINE
  5
118
330
1F
100
AcDbEntity
  8
0
  6
Continuous
 62
     7
370
    25
100
AcDbLine
 10
472.5128988483
 20
243.5068056506
 30
0.0
 11
472.5128988483
 21
-39.4931943494
 31
0.0
  0
LINE
  5
119
330
1F
100
AcDbEntity
  8
0
  6
Continuous
 62
     1
370
    25
100
AcDbLine
 10
471.5128988483
 20
-40.4931943494
 30
0.0
 11
471.5128988483
 21
244.5068056506
 31
0.0
  0
LINE
  5
11A
330
1F
100
AcDbEntity
  8
0
  6
Continuous
 62
     1
370
    25
100
AcDbLine
 10
449.5128988483
 20
244.5068056506
 30
0.0
 11
449.5128988483
 21
-40.4931943494
 31
0.0
  0
LINE
  5
11B
330
1F
100
AcDbEntity
  8
0
  6
Continuous
 62
     7
370
    25
100
AcDbLine
 10
283.475246773
 20
327.6461127426
 30
0.0
 11
283.475246773
 21
349.6461127426
 31
0.0
  0
LINE
  5
11C
330
1F
100
AcDbEntity
  8
0
  6
Continuous
 62
     7
370
    25
100
AcDbLine
 10
-1.524753227
 20
349.6461127426
 30
0.0
 11
-1.524753227
 21
327.6461127426
 31
0.0
  0
ARC
  5
11D
330
1F
100
AcDbEntity
  8
0
  6
Continuous
 62
     7
370
    25
100
AcDbCircle
 10
-0.524753227
 20
327.6461127426
 30
0.0
 40
1.000000000000001
100
AcDbArc
 50
180.0
 51
270.0
  0
ARC
  5
11E
330
1F
100
AcDbEntity
  8
0
  6
Continuous
 62
     7
370
    25
100
AcDbCircle
 10
282.475246773
 20
327.6461127426
 30
0.0
 40
1.0
100
AcDbArc
 50
270.0
 51
0.0
  0
ARC
  5
11F
330
1F
100
AcDbEntity
  8
0
  6
Continuous
 62
     7
370
    25
100
AcDbCircle
 10
-0.524753227
 20
349.6461127426
 30
0.0
 40
1.000000000000001
100
AcDbArc
 50
90.0
 51
180.0
  0
ARC
  5
120
330
1F
100
AcDbEntity
  8
0
  6
Continuous
 62
     7
370
    25
100
AcDbCircle
 10
282.475246773
 20
349.6461127426
 30
0.0
 40
1.0
100
AcDbArc
 50
0.0
 51
90.0
  0
LINE
  5
121
330
1F
100
AcDbEntity
  8
0
  6
Continuous
 62
     7
370
    25
100
AcDbLine
 10
282.475246773
 20
326.6461127426
 30
0.0
 11
-0.524753227
 21
326.6461127426
 31
0.0
  0
LINE
  5
122
330
1F
100
AcDbEntity
  8
0
  6
Continuous
 62
     7
370
    25
100
AcDbLine
 10
-0.5247532266
 20
350.6461127426
 30
0.0
 11
282.475246773
 21
350.6461127426
 31
0.0
  0
LINE
  5
123
330
1F
100
AcDbEntity
  8
0
  6
Continuous
 62
     1
370
    25
100
AcDbLine
 10
283.475246773
 20
349.6461127426
 30
0.0
 11
-1.524753227
 21
349.6461127426
 31
0.0
  0
LINE
  5
124
330
1F
100
AcDbEntity
  8
0
  6
Continuous
 62
     1
370
    25
100
AcDbLine
 10
-1.524753227
 20
327.6461127426
 30
0.0
 11
283.475246773
 21
327.6461127426
 31
0.0
  0
LINE
  5
125
330
1F
100
AcDbEntity
  8
0
  6
Continuous
 62
     7
370
    25
100
AcDbLine
 10
-1.524753227
 20
-208.730704458
 30
0.0
 11
-1.524753227
 21
-230.730704458
 31
0.0
  0
LINE
  5
126
330
1F
100
AcDbEntity
  8
0
  6
Continuous
 62
     7
370
    25
100
AcDbLine
 10
283.475246773
 20
-230.730704458
 30
0.0
 11
283.475246773
 21
-208.730704458
 31
0.0
  0
ARC
  5
127
330
1F
100
AcDbEntity
  8
0
  6
Continuous
 62
     7
370
    25
100
AcDbCircle
 10
282.475246773
 20
-208.730704458
 30
0.0
 40
1.0
100
AcDbArc
 50
0.0
 51
90.0
  0
ARC
  5
128
330
1F
100
AcDbEntity
  8
0
  6
Continuous
 62
     7
370
    25
100
AcDbCircle
 10
-0.524753227
 20
-208.730704458
 30
0.0
 40
1.000000000000001
100
AcDbArc
 50
90.0
 51
180.0
  0
ARC
  5
129
330
1F
100
AcDbEntity
  8
0
  6
Continuous
 62
     7
370
    25
100
AcDbCircle
 10
282.475246773
 20
-230.730704458
 30
0.0
 40
1.0
100
AcDbArc
 50
270.0
 51
0.0
  0
ARC
  5
12A
330
1F
100
AcDbEntity
  8
0
  6
Continuous
 62
     7
370
    25
100
AcDbCircle
 10
-0.524753227
 20
-230.730704458
 30
0.0
 40
1.000000000000001
100
AcDbArc
 50
180.0
 51
270.0
  0
LINE
  5
12B
330
1F
100
AcDbEntity
  8
0
  6
Continuous
 62
     7
370
    25
100
AcDbLine
 10
-0.5247532266
 20
-207.730704458
 30
0.0
 11
282.475246773
 21
-207.730704458
 31
0.0
  0
LINE
  5
12C
330
1F
100
AcDbEntity
  8
0
  6
Continuous
 62
     7
370
    25
100
AcDbLine
 10
282.475246773
 20
-231.730704458
 30
0.0
 11
-0.524753227
 21
-231.730704458
 31
0.0
  0
LINE
  5
12D
330
1F
100
AcDbEntity
  8
0
  6
Continuous
 62
     1
370
    25
100
AcDbLine
 10
-1.524753227
 20
-230.730704458
 30
0.0
 11
283.475246773
 21
-230.730704458
 31
0.0
  0
LINE
  5
12E
330
1F
100
AcDbEntity
  8
0
  6
Continuous
 62
     1
370
    25
100
AcDbLine
 10
283.475246773
 20
-208.730704458
 30
0.0
 11
-1.524753227
 21
-208.730704458
 31
0.0
  0
SPLINE
  5
12F
330
1F
100
AcDbEntity
  8
0
  6
Continuous
 62
     7
370
    25
100
AcDbSpline
210
0.0
220
0.0
230
1.0
 70
     8
 71
     3
 72
    73
 73
    69
 74
     0
 42
0.00000001
 43
0.00000001
 40
0.0
 40
0.0
 40
0.0
 40
0.0
 40
0.0125691386918439
 40
0.0278089037815766
 40
0.043061101441683
 40
0.0583255467041286
 40
0.0736014525456918
 40
0.0888876140075781
 40
0.1041825877251954
 40
0.1194848456694248
 40
0.134792892730597
 40
0.150105346629328
 40
0.1654209843961277
 40
0.1807387624345919
 40
0.1960578177231656
 40
0.2113774569125991
 40
0.2266970216393529
 40
0.2420161082968978
 40
0.257334450686473
 40
0.2726518677432838
 40
0.2879682469252288
 40
0.3032835300305981
 40
0.3185977013751543
 40
0.333910778123106
 40
0.3492228025046942
 40
0.3645338356390913
 40
0.3798439526943659
 40
0.3951532391428585
 40
0.4104617879021201
 40
0.4257696971835695
 40
0.4410770689006938
 40
0.4563840075144569
 40
0.4716906192155292
 40
0.4869970113606588
 40
0.5023032920945573
 40
0.5176095700991558
 40
0.532915931270214
 40
0.5482224717177454
 40
0.563529300850481
 40
0.5788365280026687
 40
0.5941442621466708
 40
0.6094526114618645
 40
0.6247616826959886
 40
0.6400715802450737
 40
0.6553824048625152
 40
0.6706942518882614
 40
0.6860072088652015
 40
0.701321352381765
 40
0.716636743947908
 40
0.7319534246777284
 40
0.7472714085188994
 40
0.762590673742848
 40
0.7779111523995883
 40
0.7932327174627632
 40
0.8085551674670458
 40
0.8238782086046376
 40
0.8392013518435955
 40
0.8545239277924281
 40
0.8698451844534064
 40
0.8851641895916083
 40
0.9004798210155208
 40
0.9157907707098286
 40
0.9310955700917474
 40
0.9463926443040926
 40
0.9616804024831114
 40
0.9769573674048374
 40
0.9922223411091776
 40
1.0
 40
1.0
 40
1.0
 40
1.0
 10
521.5984228332746
 20
-80.70539855598632
 30
0.0
 10
520.6212352060553
 20
-80.5351660235957
 30
0.0
 10
518.4592321151415
 20
-80.15853081972007
 30
0.0
 10
515.0027901206196
 20
-79.84827836992059
 30
0.0
 10
511.2575503097044
 20
-79.7221677621564
 30
0.0
 10
507.4307279774508
 20
-79.83047723211797
 30
0.0
 10
503.5324803452703
 20
-80.1649430569365
 30
0.0
 10
499.5688262483977
 20
-80.72731089694885
 30
0.0
 10
495.5470991799854
 20
-81.51607024399587
 30
0.0
 10
491.474438107072
 20
-82.53001148890407
 30
0.0
 10
487.3581494655569
 20
-83.7672806571978
 30
0.0
 10
483.205573546802
 20
-85.2256485073585
 30
0.0
 10
479.0240908376558
 20
-86.90245743752298
 30
0.0
 10
474.8210973034746
 20
-88.79465572676263
 30
0.0
 10
470.6039931858277
 20
-90.89880766114628
 30
0.0
 10
466.3801826192198
 20
-93.21110270039141
 30
0.0
 10
462.1570534545976
 20
-95.72737131678815
 30
0.0
 10
457.9419662565112
 20
-98.44309803826224
 30
0.0
 10
453.7422360261863
 20
-101.3534401941173
 30
0.0
 10
449.5651358340369
 20
-104.4532312811119
 30
0.0
 10
445.4178910469981
 20
-107.7369880232773
 30
0.0
 10
441.3076699466069
 20
-111.1989193055924
 30
0.0
 10
437.2415738441278
 20
-114.8329353391
 30
0.0
 10
433.2266267639995
 20
-118.6326571952939
 30
0.0
 10
429.269764785549
 20
-122.5914268014266
 30
0.0
 10
425.3778251382899
 20
-126.7023174523768
 30
0.0
 10
421.5575351439252
 20
-130.9581448667942
 30
0.0
 10
417.8155010917409
 20
-135.3514787945865
 30
0.0
 10
414.1581971258199
 20
-139.8746551678857
 30
0.0
 10
410.5919542138036
 20
-144.5197887771363
 30
0.0
 10
407.1229492586482
 20
-149.2787864467042
 30
0.0
 10
403.7571944073158
 20
-154.143360679539
 30
0.0
 10
400.5005266038354
 20
-159.1050437371214
 30
0.0
 10
397.3585974285452
 20
-164.1552021188544
 30
0.0
 10
394.3368632608642
 20
-169.2850514031263
 30
0.0
 10
391.4405772583888
 20
-174.4856687907995
 30
0.0
 10
388.6747793005249
 20
-179.7480095250193
 30
0.0
 10
386.0442863023875
 20
-185.0629240974469
 30
0.0
 10
383.5536827812986
 20
-190.4211769695305
 30
0.0
 10
381.207313916173
 20
-195.8134616020955
 30
0.0
 10
379.0092790480238
 20
-201.2304151214544
 30
0.0
 10
376.9634248870484
 20
-206.6626345646361
 30
0.0
 10
375.0733392361324
 20
-212.1006931434005
 30
0.0
 10
373.3423452439839
 20
-217.5351564724945
 30
0.0
 10
371.7734961967427
 20
-222.9565987036218
 30
0.0
 10
370.3695708513954
 20
-228.3556185015235
 30
0.0
 10
369.1330693068965
 20
-233.7228547929507
 30
0.0
 10
368.0662093989328
 20
-239.0490022133182
 30
0.0
 10
367.1709235909553
 20
-244.3248261699987
 30
0.0
 10
366.4488563165752
 20
-249.5411774363023
 30
0.0
 10
365.9013617055799
 20
-254.6890061877701
 30
0.0
 10
365.5295015972858
 20
-259.7593753939601
 30
0.0
 10
365.3340437082998
 20
-264.7434734899503
 30
0.0
 10
365.315459784438
 20
-269.6326262678637
 30
0.0
 10
365.4739235038122
 20
-274.4183079889401
 30
0.0
 10
365.809307310797
 20
-279.0921432957298
 30
0.0
 10
366.3211766429293
 20
-283.6459137342918
 30
0.0
 10
367.0087842363326
 20
-288.0715758855852
 30
0.0
 10
367.8710634725237
 20
-292.3612812513022
 30
0.0
 10
368.9066285769963
 20
-296.5073828474563
 30
0.0
 10
370.1137430095462
 20
-300.5024694161431
 30
0.0
 10
371.4903916087272
 20
-304.3392755348496
 30
0.0
 10
373.0339674129971
 20
-308.0111003761259
 30
0.0
 10
374.7424003391172
 20
-311.5103501950446
 30
0.0
 10
376.6099229923032
 20
-314.8341014757765
 30
0.0
 10
378.6428588581139
 20
-317.9635091645634
 30
0.0
 10
380.448580719768
 20
-320.4547918350875
 30
0.0
 10
381.6328913754269
 20
-321.8261812095203
 30
0.0
 10
382.0326358170587
 20
-322.2890709733867
 30
0.0
  0
LINE
  5
130
330
1F
100
AcDbEntity
  8
0
  6
Continuous
 62
     7
370
    25
100
AcDbLine
 10
553.1873194589
 20
-95.5036924797
 30
0.0
 11
537.6309702728
 21
-86.5232032497
 31
0.0
  0
LINE
  5
131
330
1F
100
AcDbEntity
  8
0
  6
Continuous
 62
     7
370
    25
100
AcDbLine
 10
395.1425508721
 20
-333.3471290281
 30
0.0
 11
410.6989000582
 21
-342.3276182582
 31
0.0
  0
SPLINE
  5
132
330
1F
100
AcDbEntity
  8
0
  6
Continuous
 62
     7
370
    25
100
AcDbSpline
210
0.0
220
0.0
230
1.0
 70
     8
 71
     3
 72
    59
 73
    55
 74
     0
 42
0.00000001
 43
0.00000001
 40
0.0
 40
0.0
 40
0.0
 40
0.0
 40
0.0136482271190088
 40
0.0330017883799598
 40
0.0523711026856117
 40
0.0717560516255647
 40
0.0911557229777667
 40
0.1105686425972045
 40
0.1299930050372982
 40
0.1494268741454394
 40
0.1688683387476826
 40
0.18831562023317
 40
0.2077671366963075
 40
0.2272215322697821
 40
0.2466776812742444
 40
0.2661346759599842
 40
0.2855916782814468
 40
0.3050481270836308
 40
0.3245036683517616
 40
0.3439580591910621
 40
0.3634111463307961
 40
0.3828628477066887
 40
0.4023131370637538
 40
0.4217620313351298
 40
0.4412095804636283
 40
0.4606558593086781
 40
0.4801009612944615
 40
0.4995449934873862
 40
0.5189880728308938
 40
0.5384303233066042
 40
0.5578718738287785
 40
0.5773128567128357
 40
0.596753406586954
 40
0.6161936596391563
 40
0.6356337531105923
 40
0.6550738249596698
 40
0.674513990288408
 40
0.6939543650716887
 40
0.7133950882583397
 40
0.7328362987410113
 40
0.7522781350093467
 40
0.771720734630951
 40
0.7911642334798457
 40
0.8106087646208453
 40
0.8300544567391613
 40
0.8495014319802859
 40
0.8689498030356758
 40
0.8883996692747314
 40
0.9078511116837105
 40
0.9273041863292374
 40
0.9467589160217043
 40
0.9662152798187427
 40
0.9856731999925389
 40
0.9999999999999999
 40
0.9999999999999999
 40
0.9999999999999999
 40
0.9999999999999999
 10
426.6932971369093
 20
-348.13067565568
 30
0.0
 10
427.5261777889064
 20
-348.2823877926921
 30
0.0
 10
429.5401061023271
 20
-348.6492319107369
 30
0.0
 10
432.8416633735437
 20
-348.9686663972221
 30
0.0
 10
436.5754847376256
 20
-349.1260505640186
 30
0.0
 10
440.3924806514594
 20
-349.0473115892956
 30
0.0
 10
444.2816052858009
 20
-348.7428530930447
 30
0.0
 10
448.2371084983321
 20
-348.210281124383
 30
0.0
 10
452.2516088945824
 20
-347.4512047693971
 30
0.0
 10
456.3179985623819
 20
-346.4667323361833
 30
0.0
 10
460.4289756436989
 20
-345.2586717309202
 30
0.0
 10
464.577207130181
 20
-343.8291936240699
 30
0.0
 10
468.7553156114477
 20
-342.1809030017531
 30
0.0
 10
472.9559066313886
 20
-340.3167999861405
 30
0.0
 10
477.1715797793184
 20
-338.2402708780961
 30
0.0
 10
481.3949310982513
 20
-335.9550775199739
 30
0.0
 10
485.6185697384543
 20
-333.4653431625046
 30
0.0
 10
489.8351311184901
 20
-330.7755384736886
 30
0.0
 10
494.037293643524
 20
-327.8904639231211
 30
0.0
 10
498.2177786473666
 20
-324.81524375932
 30
0.0
 10
502.3693539753984
 20
-321.5553201686587
 30
0.0
 10
506.4848432965122
 20
-318.1164443593093
 30
0.0
 10
510.5571359254646
 20
-314.504667435484
 30
0.0
 10
514.5791970876267
 20
-310.7263309176375
 30
0.0
 10
518.5440785378128
 20
-306.7880568115507
 30
0.0
 10
522.4449294380377
 20
-302.6967371663963
 30
0.0
 10
526.275007400494
 20
-298.4595230908456
 30
0.0
 10
530.0276896080699
 20
-294.0838132178049
 30
0.0
 10
533.6964839328517
 20
-289.5772416239532
 30
0.0
 10
537.2750399817446
 20
-284.9476652212803
 30
0.0
 10
540.7571600067239
 20
-280.2031506454157
 30
0.0
 10
544.1368096248372
 20
-275.3519606706945
 30
0.0
 10
547.4081282997304
 20
-270.4025401853543
 30
0.0
 10
550.5654395421956
 20
-265.3635017624964
 30
0.0
 10
553.6032607918704
 20
-260.2436108643056
 30
0.0
 10
556.516311780784
 20
-255.0517727952728
 30
0.0
 10
559.2995239917733
 20
-249.7970173778778
 30
0.0
 10
561.9480507490968
 20
-244.488481274
 30
0.0
 10
564.4572764851042
 20
-239.1353898481523
 30
0.0
 10
566.8228242700142
 20
-233.7470410388866
 30
0.0
 10
569.040562084856
 20
-228.3327912469209
 30
0.0
 10
571.1066096696565
 20
-222.9020391028164
 30
0.0
 10
573.0173449109147
 20
-217.4642091780462
 30
0.0
 10
574.7694095006804
 20
-212.0287358395897
 30
0.0
 10
576.3597148054582
 20
-206.6050467612503
 30
0.0
 10
577.7854444037166
 20
-201.2025481876187
 30
0.0
 10
579.0440664967945
 20
-195.8306044310979
 30
0.0
 10
580.1333069307897
 20
-190.4985399983353
 30
0.0
 10
581.0512667724742
 20
-185.2155587155166
 30
0.0
 10
581.7959980095978
 20
-179.9909745033437
 30
0.0
 10
582.3670997051993
 20
-174.833281169582
 30
0.0
 10
582.7597709945319
 20
-169.7535582633264
 30
0.0
 10
582.9670369306295
 20
-165.1923987203733
 30
0.0
 10
582.9892848217667
 20
-162.3571158423783
 30
0.0
 10
582.9987192964404
 20
-161.1547814574942
 30
0.0
  0
SPLINE
  5
133
330
1F
100
AcDbEntity
  8
0
  6
Continuous
 62
     7
370
    25
100
AcDbSpline
210
0.0
220
0.0
230
1.0
 70
     8
 71
     3
 72
    22
 73
    18
 74
     0
 42
0.00000001
 43
0.00000001
 40
0.0
 40
0.0
 40
0.0
 40
0.0
 40
0.0376355523861987
 40
0.1091169451863675
 40
0.1806055493708017
 40
0.252094221655612
 40
0.3235798318655324
 40
0.3950587653352097
 40
0.4665265579265417
 40
0.5379778574502425
 40
0.6094064538360784
 40
0.6808054126513348
 40
0.7521673488100403
 40
0.823484871450354
 40
0.8947512126016033
 40
0.9659610184363615
 40
1.0
 40
1.0
 40
1.0
 40
1.0
 10
582.9987192964404
 20
-161.1547814574942
 30
0.0
 10
582.9937839389163
 20
-160.3015977323998
 30
0.0
 10
582.9794748321733
 20
-157.827957892875
 30
0.0
 10
582.820488318124
 20
-153.8129300716365
 30
0.0
 10
582.4638000899008
 20
-149.1534539679348
 30
0.0
 10
581.9282965158388
 20
-144.6163308346272
 30
0.0
 10
581.217820099767
 20
-140.2080040506234
 30
0.0
 10
580.3326633790513
 20
-135.9367441793592
 30
0.0
 10
579.274473866582
 20
-131.8100508808682
 30
0.0
 10
578.0449747342584
 20
-127.8353374708376
 30
0.0
 10
576.6462398920428
 20
-124.0198330022943
 30
0.0
 10
575.0809287963958
 20
-120.3701912148397
 30
0.0
 10
573.3511228555088
 20
-116.8940212202219
 30
0.0
 10
571.4627743377355
 20
-113.5940003776414
 30
0.0
 10
569.4090901129083
 20
-110.4896838922123
 30
0.0
 10
567.6105656033772
 20
-108.0491382657194
 30
0.0
 10
566.4419064606054
 20
-106.7186645262418
 30
0.0
 10
566.0639451747961
 20
-106.2883700572181
 30
0.0
  0
SPLINE
  5
134
330
1F
100
AcDbEntity
  8
0
  6
Continuous
 62
     7
370
    25
100
AcDbSpline
210
0.0
220
0.0
230
1.0
 70
     8
 71
     3
 72
    14
 73
    10
 74
     0
 42
0.00000001
 43
0.00000001
 40
0.0
 40
0.0
 40
0.0
 40
0.0
 40
0.0532634230592419
 40
0.2528808595227738
 40
0.4308897066515002
 40
0.6201064939466591
 40
0.8032280585694391
 40
0.9731718040508499
 40
1.0
 40
1.0
 40
1.0
 40
1.0
 10
532.0587989394626
 20
-235.1875229234193
 30
0.0
 10
532.1299660643019
 20
-235.216402734022
 30
0.0
 10
532.4678490366211
 20
-235.3535165526354
 30
0.0
 10
532.9301786679298
 20
-235.7809689071761
 30
0.0
 10
533.4687619159301
 20
-236.4946206098682
 30
0.0
 10
533.8679826451065
 20
-237.4020681988927
 30
0.0
 10
534.1210478060187
 20
-238.4793070001652
 30
0.0
 10
534.1938236239399
 20
-239.3385050178749
 30
0.0
 10
534.1966558029351
 20
-239.8087990384197
 30
0.0
 10
534.1970419466734
 20
-239.8729196647913
 30
0.0
  0
SPLINE
  5
135
330
1F
100
AcDbEntity
  8
0
  6
Continuous
 62
     7
370
    25
100
AcDbSpline
210
0.0
220
0.0
230
1.0
 70
     8
 71
     3
 72
    24
 73
    20
 74
     0
 42
0.00000001
 43
0.00000001
 40
0.0
 40
0.0
 40
0.0
 40
0.0
 40
0.031942565803319
 40
0.0932355257672732
 40
0.1547228205888329
 40
0.2163868675723777
 40
0.2781985543836219
 40
0.3401029521313609
 40
0.4020362224311839
 40
0.4639181712433077
 40
0.5256721111960271
 40
0.5872321166356416
 40
0.6485431846530857
 40
0.7095851713071876
 40
0.7704275770452272
 40
0.8312660701158598
 40
0.8925713048449662
 40
0.955368457123156
 40
1.0
 40
1.0
 40
1.0
 40
1.0
 10
534.1970419466734
 20
-239.8729196647913
 30
0.0
 10
534.1925909723188
 20
-240.1012476657574
 30
0.0
 10
534.1795992503427
 20
-240.7677026195811
 30
0.0
 10
534.0327159061103
 20
-241.9520516827702
 30
0.0
 10
533.7010887700343
 20
-243.4216511707348
 30
0.0
 10
533.2069356587162
 20
-244.92637260445
 30
0.0
 10
532.5626003332442
 20
-246.4284581243077
 30
0.0
 10
531.7811877486572
 20
-247.8930187710536
 30
0.0
 10
530.8808281225346
 20
-249.2852046025682
 30
0.0
 10
529.8830268539583
 20
-250.5722195813752
 30
0.0
 10
528.8124771241193
 20
-251.7240887971147
 30
0.0
 10
527.6963492048893
 20
-252.7147527653767
 30
0.0
 10
526.5637461257882
 20
-253.5229218308974
 30
0.0
 10
525.4446917651776
 20
-254.1334308396305
 30
0.0
 10
524.3695813739236
 20
-254.5372618935089
 30
0.0
 10
523.3647525118031
 20
-254.7362199564852
 30
0.0
 10
522.4553468630828
 20
-254.728693358496
 30
0.0
 10
521.7202703215095
 20
-254.5753527642147
 30
0.0
 10
521.3354764313158
 20
-254.3437924723165
 30
0.0
 10
521.1756127656151
 20
-254.2475901207798
 30
0.0
  0
SPLINE
  5
136
330
1F
100
AcDbEntity
  8
0
  6
Continuous
 62
     7
370
    25
100
AcDbSpline
210
0.0
220
0.0
230
1.0
 70
     8
 71
     3
 72
    20
 73
    16
 74
     0
 42
0.00000001
 43
0.00000001
 40
0.0
 40
0.0
 40
0.0
 40
0.0
 40
0.0090181492088285
 40
0.0935874257406975
 40
0.1780251379393739
 40
0.2623269269970018
 40
0.3465008263516601
 40
0.4305629060253696
 40
0.5145331086552056
 40
0.5984320207414539
 40
0.6822787688249894
 40
0.7660899003935081
 40
0.8498789842143202
 40
0.9336566655070033
 40
1.0
 40
1.0
 40
1.0
 40
1.0
 10
520.6219834092366
 20
-134.3104024035347
 30
0.0
 10
520.6932509619705
 20
-134.3809633001391
 30
0.0
 10
521.4328424950837
 20
-135.113221385279
 30
0.0
 10
522.7069856210003
 20
-136.6975413519734
 30
0.0
 10
524.427376162174
 20
-139.070063716783
 30
0.0
 10
525.980193618334
 20
-141.6497167440185
 30
0.0
 10
527.3798400353546
 20
-144.4031394323353
 30
0.0
 10
528.6180959093166
 20
-147.3301983922783
 30
0.0
 10
529.6932336682985
 20
-150.4215061630695
 30
0.0
 10
530.6023004254625
 20
-153.6696635309904
 30
0.0
 10
531.3427680144846
 20
-157.0664425162707
 30
0.0
 10
531.9136277054616
 20
-160.6026193341587
 30
0.0
 10
532.3094706281129
 20
-164.2713219792857
 30
0.0
 10
532.527008337102
 20
-167.7923926133319
 30
0.0
 10
532.55120950567
 20
-170.1249487802749
 30
0.0
 10
532.5619047851619
 20
-171.1557808273224
 30
0.0
  0
SPLINE
  5
137
330
1F
100
AcDbEntity
  8
0
  6
Continuous
 62
     7
370
    25
100
AcDbSpline
210
0.0
220
0.0
230
1.0
 70
     8
 71
     3
 72
    50
 73
    46
 74
     0
 42
0.00000001
 43
0.00000001
 40
0.0
 40
0.0
 40
0.0
 40
0.0
 40
0.012480598279357
 40
0.0362249328513087
 40
0.0599734793906355
 40
0.0837245680847206
 40
0.1074786234769905
 40
0.1312358360332633
 40
0.1549962228091885
 40
0.1787596749575015
 40
0.2025259938262865
 40
0.2262949178860438
 40
0.2500661424576979
 40
0.2738393338926738
 40
0.2976141395438249
 40
0.3213901945913526
 40
0.3451671265610783
 40
0.3689445581937558
 40
0.3927221091900003
 40
0.4164993091800681
 40
0.4402757355096751
 40
0.464051004572693
 40
0.4878247338710212
 40
0.5115965441928645
 40
0.5353660631526245
 40
0.5591329306713635
 40
0.5828968071427059
 40
0.6066573852335889
 40
0.6304144065243618
 40
0.6541676844945646
 40
0.6779171356930018
 40
0.7016628212517573
 40
0.7254050011278903
 40
0.7491442034251012
 40
0.7728813105882235
 40
0.796617627935062
 40
0.8203544050323106
 40
0.8440940144976327
 40
0.8678396058409875
 40
0.8915951925853722
 40
0.9153656664103533
 40
0.9391566778556271
 40
0.9629743087260932
 40
0.9868244631648904
 40
1.0
 40
1.0
 40
1.0
 40
1.0
 10
532.5619047851619
 20
-171.1557808273224
 30
0.0
 10
532.5570614104711
 20
-171.8469633820098
 30
0.0
 10
532.5430035168489
 20
-173.8531205446003
 30
0.0
 10
532.3866243619494
 20
-177.2501875559662
 30
0.0
 10
532.03559362196
 20
-181.3671334896518
 30
0.0
 10
531.508827660281
 20
-185.5619629588674
 30
0.0
 10
530.8105569809198
 20
-189.8215765438184
 30
0.0
 10
529.9416753069604
 20
-194.1351463512894
 30
0.0
 10
528.904565597374
 20
-198.491060223745
 30
0.0
 10
527.701803452418
 20
-202.8777495991578
 30
0.0
 10
526.3364955231224
 20
-207.2835127714796
 30
0.0
 10
524.8121775736332
 20
-211.6966063356012
 30
0.0
 10
523.1328287592922
 20
-216.1052637806226
 30
0.0
 10
521.3028532243596
 20
-220.4977327274441
 30
0.0
 10
519.3270691111384
 20
-224.8623063815475
 30
0.0
 10
517.210694369487
 20
-229.1873558223232
 30
0.0
 10
514.959332306063
 20
-233.4613614083226
 30
0.0
 10
512.5789561566451
 20
-237.6729437920382
 30
0.0
 10
510.0758960158168
 20
-241.8108893215622
 30
0.0
 10
507.4568209170308
 20
-245.8641834263039
 30
0.0
 10
504.7287198952842
 20
-249.8220428356348
 30
0.0
 10
501.8988797957593
 20
-253.6739494161311
 30
0.0
 10
498.9748675694451
 20
-257.4096756283399
 30
0.0
 10
495.964511945217
 20
-261.0193103234657
 30
0.0
 10
492.8758829413612
 20
-264.4932862392669
 30
0.0
 10
489.7172706220013
 20
-267.8224069507954
 30
0.0
 10
486.4971630386637
 20
-270.9978732569693
 30
0.0
 10
483.2242232632008
 20
-274.0113089761138
 30
0.0
 10
479.9072653761778
 20
-276.8547861045021
 30
0.0
 10
476.555229222746
 20
-279.5208492590791
 30
0.0
 10
473.1771536922781
 20
-282.0025392609084
 30
0.0
 10
469.7821482074933
 20
-284.2934156450325
 30
0.0
 10
466.3793620965006
 20
-286.3875776570069
 30
0.0
 10
462.9779513590786
 20
-288.2796834075899
 30
0.0
 10
459.5870445768086
 20
-289.9649645867788
 30
0.0
 10
456.2157327526859
 20
-291.439228139733
 30
0.0
 10
452.8730097145161
 20
-292.6988731913451
 30
0.0
 10
449.5677130143843
 20
-293.7409239864612
 30
0.0
 10
446.3085008276366
 20
-294.5629161512689
 30
0.0
 10
443.103642974464
 20
-295.1632823703618
 30
0.0
 10
439.9616829707729
 20
-295.539766595273
 30
0.0
 10
436.8888041907
 20
-295.6951795143095
 30
0.0
 10
433.898587697571
 20
-295.6156695559329
 30
0.0
 10
431.4131419341803
 20
-295.3912341111471
 30
0.0
 10
429.9662189742078
 20
-295.1054538159943
 30
0.0
 10
429.4513336040563
 20
-295.0037593256017
 30
0.0
  0
SPLINE
  5
138
330
1F
100
AcDbEntity
  8
0
  6
Continuous
 62
     7
370
    25
100
AcDbSpline
210
0.0
220
0.0
230
1.0
 70
     8
 71
     3
 72
    62
 73
    58
 74
     0
 42
0.00000001
 43
0.00000001
 40
0.0
 40
0.0
 40
0.0
 40
0.0
 40
0.0041573940251438
 40
0.0228489523880038
 40
0.0415110552938815
 40
0.0601432318004278
 40
0.0787476058958062
 40
0.0973279234005031
 40
0.1158886569026039
 40
0.1344343311370331
 40
0.1529690956675321
 40
0.1714965068676574
 40
0.1900194591873929
 40
0.2085402086688521
 40
0.2270603717346262
 40
0.2455808759062745
 40
0.2641026695195327
 40
0.2826263721485027
 40
0.3011523495786395
 40
0.3196807759088754
 40
0.3382116831730906
 40
0.3567449999723064
 40
0.3752805809199077
 40
0.3938182286687866
 40
0.4123577100960839
 40
0.4308987679734444
 40
0.4494411292039672
 40
0.4679845104874262
 40
0.4865286220922888
 40
0.5050731702680022
 40
0.5236178587211174
 40
0.5421623365573477
 40
0.5607062584761118
 40
0.5792493252611088
 40
0.5977912383646808
 40
0.6163317014715811
 40
0.634870423064475
 40
0.6534071204229515
 40
0.6719415256151176
 40
0.6904733941943756
 40
0.7090025175065786
 40
0.7275287397430013
 40
0.7460519811313995
 40
0.7645722689125594
 40
0.7830897779430134
 40
0.8016048827831066
 40
0.8201182227775721
 40
0.8386307805956806
 40
0.8571434973947205
 40
0.8756580913850025
 40
0.8941769173284689
 40
0.9127029958542903
 40
0.931240036302543
 40
0.9497923638886935
 40
0.9683646940618639
 40
0.9869616954570067
 40
1.0
 40
1.0
 40
1.0
 40
1.0
 10
427.629844679382
 20
-294.4431302043657
 30
0.0
 10
427.4824776027262
 20
-294.2941514851153
 30
0.0
 10
426.6725511685936
 20
-293.4753674963011
 30
0.0
 10
425.3400684664638
 20
-291.7893107848622
 30
0.0
 10
423.6457236715866
 20
-289.3837679573623
 30
0.0
 10
422.1170415383301
 20
-286.7759953275178
 30
0.0
 10
420.7427682682199
 20
-283.9945552912347
 30
0.0
 10
419.5302080153693
 20
-281.0409193017758
 30
0.0
 10
418.4812456440421
 20
-277.9241933180969
 30
0.0
 10
417.5987939105097
 20
-274.6518860598094
 30
0.0
 10
416.8850711985518
 20
-271.2324247661044
 30
0.0
 10
416.3420404509894
 20
-267.6745110932773
 30
0.0
 10
415.9712583714595
 20
-263.9873005994439
 30
0.0
 10
415.7738804692657
 20
-260.1803472382533
 30
0.0
 10
415.7506266001653
 20
-256.2636078707304
 30
0.0
 10
415.9017604435873
 20
-252.2473809716838
 30
0.0
 10
416.2270782980757
 20
-248.1422665787964
 30
0.0
 10
416.7259069174464
 20
-243.959112357169
 30
0.0
 10
417.3970991594538
 20
-239.7090067216491
 30
0.0
 10
418.2390334566101
 20
-235.4032411081891
 30
0.0
 10
419.2496164749692
 20
-231.0532727808536
 30
0.0
 10
420.4262883450656
 20
-226.6706884200936
 30
0.0
 10
421.766029954693
 20
-222.2671685725615
 30
0.0
 10
423.265371921812
 20
-217.8544529367443
 30
0.0
 10
424.9204049656953
 20
-213.4443064171368
 30
0.0
 10
426.7267914739792
 20
-209.0484858679475
 30
0.0
 10
428.6797781217143
 20
-204.6787074537812
 30
0.0
 10
430.7742094401882
 20
-200.346614569162
 30
0.0
 10
433.0045422621552
 20
-196.0637462753487
 30
0.0
 10
435.3648609889027
 20
-191.8415062297323
 30
0.0
 10
437.8488912754536
 20
-187.6911360434483
 30
0.0
 10
440.4500165219559
 20
-183.6236842547846
 30
0.0
 10
443.161297250329
 20
-179.6499728042691
 30
0.0
 10
445.975492332874
 20
-175.7805641289325
 30
0.0
 10
448.8850781905404
 20
-172.0257334077218
 30
0.0
 10
451.8822662824328
 20
-168.3954438405695
 30
0.0
 10
454.9590234780132
 20
-164.8993190677793
 30
0.0
 10
458.1070931776864
 20
-161.5466161315365
 30
0.0
 10
461.3180172366378
 20
-158.3461989983525
 30
0.0
 10
464.5831587798567
 20
-155.3065126673289
 30
0.0
 10
467.8937260369296
 20
-152.4355579063169
 30
0.0
 10
471.240797375747
 20
-149.7408666882476
 30
0.0
 10
474.6153477697575
 20
-147.2294784586522
 30
0.0
 10
478.0082770018292
 20
-144.9079174352175
 30
0.0
 10
481.4104399317529
 20
-142.7821713373026
 30
0.0
 10
484.8126792898493
 20
-140.8576718954488
 30
0.0
 10
488.2058610174876
 20
-139.1392786498774
 30
0.0
 10
491.5808846756855
 20
-137.6312774387021
 30
0.0
 10
494.9287382317755
 20
-136.337363301873
 30
0.0
 10
498.2405546800446
 20
-135.2606119688406
 30
0.0
 10
501.5076463798657
 20
-134.403564986411
 30
0.0
 10
504.7216746786763
 20
-133.7679392199407
 30
0.0
 10
507.8741543335924
 20
-133.355844676802
 30
0.0
 10
510.9584638168116
 20
-133.1653986047812
 30
0.0
 10
513.9624327211927
 20
-133.2073284938085
 30
0.0
 10
516.6022732337631
 20
-133.4195277556221
 30
0.0
 10
518.1951692967526
 20
-133.7155041821567
 30
0.0
 10
518.8516720034186
 20
-133.8374891186783
 30
0.0
  0
SPLINE
  5
139
330
1F
100
AcDbEntity
  8
0
  6
Continuous
 62
     7
370
    25
100
AcDbSpline
210
0.0
220
0.0
230
1.0
 70
     8
 71
     3
 72
    14
 73
    10
 74
     0
 42
0.00000001
 43
0.00000001
 40
0.0
 40
0.0
 40
0.0
 40
0.0
 40
0.0532634230592716
 40
0.2528808595227966
 40
0.4308897066515197
 40
0.6201064939466892
 40
0.8032280585694778
 40
0.9731718040508968
 40
1.0
 40
1.0
 40
1.0
 40
1.0
 10
557.0462320896227
 20
-151.1015013808951
 30
0.0
 10
557.117399214462
 20
-151.1303811914978
 30
0.0
 10
557.4552821867812
 20
-151.2674950101112
 30
0.0
 10
557.9176118180899
 20
-151.6949473646519
 30
0.0
 10
558.4561950660902
 20
-152.4085990673441
 30
0.0
 10
558.8554157952666
 20
-153.3160466563686
 30
0.0
 10
559.1084809561788
 20
-154.3932854576412
 30
0.0
 10
559.1812567741001
 20
-155.2524834753508
 30
0.0
 10
559.1840889530952
 20
-155.7227774958955
 30
0.0
 10
559.1844750968334
 20
-155.7868981222671
 30
0.0
  0
SPLINE
  5
13A
330
1F
100
AcDbEntity
  8
0
  6
Continuous
 62
     7
370
    25
100
AcDbSpline
210
0.0
220
0.0
230
1.0
 70
     8
 71
     3
 72
    24
 73
    20
 74
     0
 42
0.00000001
 43
0.00000001
 40
0.0
 40
0.0
 40
0.0
 40
0.0
 40
0.0319425658033185
 40
0.0932355257672847
 40
0.1547228205888464
 40
0.2163868675723858
 40
0.2781985543836314
 40
0.34010295213137
 40
0.4020362224311986
 40
0.463918171243316
 40
0.5256721111960352
 40
0.587232116635652
 40
0.6485431846530959
 40
0.7095851713071959
 40
0.7704275770452345
 40
0.831266070115868
 40
0.8925713048449725
 40
0.9553684571231632
 40
1.0
 40
1.0
 40
1.0
 40
1.0
 10
559.1844750968334
 20
-155.7868981222671
 30
0.0
 10
559.1800241224788
 20
-156.0152261232331
 30
0.0
 10
559.1670324005026
 20
-156.6816810770569
 30
0.0
 10
559.0201490562703
 20
-157.8660301402462
 30
0.0
 10
558.6885219201941
 20
-159.3356296282109
 30
0.0
 10
558.1943688088762
 20
-160.840351061926
 30
0.0
 10
557.5500334834041
 20
-162.3424365817837
 30
0.0
 10
556.7686208988171
 20
-163.8069972285296
 30
0.0
 10
555.8682612726944
 20
-165.1991830600443
 30
0.0
 10
554.870460004118
 20
-166.4861980388512
 30
0.0
 10
553.7999102742791
 20
-167.6380672545907
 30
0.0
 10
552.683782355049
 20
-168.6287312228527
 30
0.0
 10
551.551179275948
 20
-169.4369002883733
 30
0.0
 10
550.4321249153373
 20
-170.0474092971064
 30
0.0
 10
549.3570145240833
 20
-170.4512403509848
 30
0.0
 10
548.352185661963
 20
-170.650198413961
 30
0.0
 10
547.4427800132427
 20
-170.6426718159717
 30
0.0
 10
546.7077034716693
 20
-170.4893312216904
 30
0.0
 10
546.3229095814756
 20
-170.2577709297922
 30
0.0
 10
546.1630459157751
 20
-170.1615685782555
 30
0.0
  0
SPLINE
  5
13B
330
1F
100
AcDbEntity
  8
0
  6
Continuous
 62
     7
370
    25
100
AcDbSpline
210
0.0
220
0.0
230
1.0
 70
     8
 71
     3
 72
    14
 73
    10
 74
     0
 42
0.00000001
 43
0.00000001
 40
0.0
 40
0.0
 40
0.0
 40
0.0
 40
0.0532634230592929
 40
0.2528808595228289
 40
0.4308897066515665
 40
0.6201064939467449
 40
0.803228058569525
 40
0.9731718040509412
 40
1.0
 40
1.0
 40
1.0
 40
1.0
 10
471.7337989394608
 20
-298.8669696806165
 30
0.0
 10
471.8049660643003
 20
-298.8958494912193
 30
0.0
 10
472.1428490366194
 20
-299.0329633098327
 30
0.0
 10
472.605178667928
 20
-299.4604156643735
 30
0.0
 10
473.1437619159284
 20
-300.1740673670658
 30
0.0
 10
473.5429826451047
 20
-301.0815149560904
 30
0.0
 10
473.7960478060168
 20
-302.1587537573629
 30
0.0
 10
473.868823623938
 20
-303.0179517750724
 30
0.0
 10
473.8716558029331
 20
-303.488245795617
 30
0.0
 10
473.8720419466713
 20
-303.5523664219884
 30
0.0
  0
SPLINE
  5
13C
330
1F
100
AcDbEntity
  8
0
  6
Continuous
 62
     7
370
    25
100
AcDbSpline
210
0.0
220
0.0
230
1.0
 70
     8
 71
     3
 72
    24
 73
    20
 74
     0
 42
0.00000001
 43
0.00000001
 40
0.0
 40
0.0
 40
0.0
 40
0.0
 40
0.0319425658033185
 40
0.0932355257672859
 40
0.1547228205888437
 40
0.2163868675723868
 40
0.2781985543836293
 40
0.3401029521313655
 40
0.4020362224311935
 40
0.46391817124331
 40
0.5256721111960369
 40
0.5872321166356532
 40
0.6485431846530937
 40
0.7095851713071998
 40
0.7704275770452372
 40
0.8312660701158696
 40
0.8925713048449725
 40
0.9553684571231608
 40
1.0
 40
1.0
 40
1.0
 40
1.0
 10
473.8720419466713
 20
-303.5523664219884
 30
0.0
 10
473.8675909723168
 20
-303.7806944229545
 30
0.0
 10
473.8545992503406
 20
-304.4471493767783
 30
0.0
 10
473.7077159061082
 20
-305.6314984399675
 30
0.0
 10
473.3760887700322
 20
-307.1010979279322
 30
0.0
 10
472.8819356587141
 20
-308.6058193616473
 30
0.0
 10
472.2376003332421
 20
-310.1079048815051
 30
0.0
 10
471.456187748655
 20
-311.5724655282509
 30
0.0
 10
470.5558281225324
 20
-312.9646513597656
 30
0.0
 10
469.558026853956
 20
-314.2516663385725
 30
0.0
 10
468.487477124117
 20
-315.403535554312
 30
0.0
 10
467.3713492048869
 20
-316.3941995225741
 30
0.0
 10
466.2387461257858
 20
-317.2023685880947
 30
0.0
 10
465.1196917651752
 20
-317.8128775968278
 30
0.0
 10
464.0445813739211
 20
-318.2167086507062
 30
0.0
 10
463.0397525118008
 20
-318.4156667136822
 30
0.0
 10
462.1303468630805
 20
-318.408140115693
 30
0.0
 10
461.3952703215072
 20
-318.2547995214117
 30
0.0
 10
461.0104764313136
 20
-318.0232392295134
 30
0.0
 10
460.8506127656129
 20
-317.9270368779767
 30
0.0
  0
SPLINE
  5
13D
330
1F
100
AcDbEntity
  8
0
  6
Continuous
 62
     7
370
    25
100
AcDbSpline
210
0.0
220
0.0
230
1.0
 70
     8
 71
     3
 72
    14
 73
    10
 74
     0
 42
0.00000001
 43
0.00000001
 40
0.0
 40
0.0
 40
0.0
 40
0.0
 40
0.0532634230592339
 40
0.2528808595227464
 40
0.4308897066514735
 40
0.620106493946632
 40
0.8032280585694103
 40
0.9731718040508207
 40
1.0
 40
1.0
 40
1.0
 40
1.0
 10
532.0587989394678
 20
-95.86535606665801
 30
0.0
 10
532.1299660643072
 20
-95.89423587726074
 30
0.0
 10
532.4678490366263
 20
-96.03134969587413
 30
0.0
 10
532.9301786679349
 20
-96.45880205041476
 30
0.0
 10
533.4687619159353
 20
-97.17245375310686
 30
0.0
 10
533.8679826451117
 20
-98.07990134213124
 30
0.0
 10
534.1210478060239
 20
-99.15714014340377
 30
0.0
 10
534.1938236239451
 20
-100.0163381611134
 30
0.0
 10
534.1966558029403
 20
-100.4866321816584
 30
0.0
 10
534.1970419466785
 20
-100.55075280803
 30
0.0
  0
SPLINE
  5
13E
330
1F
100
AcDbEntity
  8
0
  6
Continuous
 62
     7
370
    25
100
AcDbSpline
210
0.0
220
0.0
230
1.0
 70
     8
 71
     3
 72
    24
 73
    20
 74
     0
 42
0.00000001
 43
0.00000001
 40
0.0
 40
0.0
 40
0.0
 40
0.0
 40
0.031942565803319
 40
0.0932355257672732
 40
0.1547228205888329
 40
0.2163868675723777
 40
0.2781985543836219
 40
0.3401029521313609
 40
0.4020362224311839
 40
0.4639181712433077
 40
0.5256721111960271
 40
0.5872321166356416
 40
0.6485431846530857
 40
0.7095851713071876
 40
0.7704275770452272
 40
0.8312660701158598
 40
0.8925713048449662
 40
0.955368457123156
 40
1.0
 40
1.0
 40
1.0
 40
1.0
 10
534.1970419466785
 20
-100.55075280803
 30
0.0
 10
534.192590972324
 20
-100.7790808089961
 30
0.0
 10
534.1795992503479
 20
-101.4455357628198
 30
0.0
 10
534.0327159061154
 20
-102.6298848260088
 30
0.0
 10
533.7010887700394
 20
-104.0994843139736
 30
0.0
 10
533.2069356587215
 20
-105.6042057476886
 30
0.0
 10
532.5626003332494
 20
-107.1062912675464
 30
0.0
 10
531.7811877486623
 20
-108.5708519142922
 30
0.0
 10
530.8808281225398
 20
-109.9630377458069
 30
0.0
 10
529.8830268539635
 20
-111.2500527246139
 30
0.0
 10
528.8124771241245
 20
-112.4019219403534
 30
0.0
 10
527.6963492048945
 20
-113.3925859086154
 30
0.0
 10
526.5637461257934
 20
-114.200754974136
 30
0.0
 10
525.4446917651827
 20
-114.8112639828692
 30
0.0
 10
524.3695813739287
 20
-115.2150950367477
 30
0.0
 10
523.3647525118083
 20
-115.4140530997238
 30
0.0
 10
522.4553468630879
 20
-115.4065265017347
 30
0.0
 10
521.7202703215146
 20
-115.2531859074534
 30
0.0
 10
521.335476431321
 20
-115.0216256155552
 30
0.0
 10
521.1756127656203
 20
-114.9254232640185
 30
0.0
  0
SPLINE
  5
13F
330
1F
100
AcDbEntity
  8
0
  6
Continuous
 62
     7
370
    25
100
AcDbSpline
210
0.0
220
0.0
230
1.0
 70
     8
 71
     3
 72
    14
 73
    10
 74
     0
 42
0.00000001
 43
0.00000001
 40
0.0
 40
0.0
 40
0.0
 40
0.0
 40
0.0532634230592419
 40
0.2528808595227738
 40
0.4308897066515002
 40
0.6201064939466591
 40
0.8032280585694391
 40
0.9731718040508499
 40
1.0
 40
1.0
 40
1.0
 40
1.0
 10
411.4087989394607
 20
-304.8372853865355
 30
0.0
 10
411.4799660643
 20
-304.8661651971382
 30
0.0
 10
411.8178490366191
 20
-305.0032790157516
 30
0.0
 10
412.2801786679278
 20
-305.4307313702923
 30
0.0
 10
412.8187619159282
 20
-306.1443830729844
 30
0.0
 10
413.2179826451045
 20
-307.0518306620089
 30
0.0
 10
413.4710478060168
 20
-308.1290694632814
 30
0.0
 10
413.5438236239381
 20
-308.9882674809911
 30
0.0
 10
413.5466558029332
 20
-309.4585615015359
 30
0.0
 10
413.5470419466714
 20
-309.5226821279076
 30
0.0
  0
SPLINE
  5
140
330
1F
100
AcDbEntity
  8
0
  6
Continuous
 62
     7
370
    25
100
AcDbSpline
210
0.0
220
0.0
230
1.0
 70
     8
 71
     3
 72
    24
 73
    20
 74
     0
 42
0.00000001
 43
0.00000001
 40
0.0
 40
0.0
 40
0.0
 40
0.0
 40
0.031942565803319
 40
0.0932355257672732
 40
0.1547228205888329
 40
0.2163868675723777
 40
0.2781985543836219
 40
0.3401029521313609
 40
0.4020362224311839
 40
0.4639181712433077
 40
0.5256721111960271
 40
0.5872321166356416
 40
0.6485431846530857
 40
0.7095851713071876
 40
0.7704275770452272
 40
0.8312660701158598
 40
0.8925713048449662
 40
0.955368457123156
 40
1.0
 40
1.0
 40
1.0
 40
1.0
 10
413.5470419466714
 20
-309.5226821279076
 30
0.0
 10
413.5425909723169
 20
-309.7510101288736
 30
0.0
 10
413.5295992503407
 20
-310.4174650826973
 30
0.0
 10
413.3827159061083
 20
-311.6018141458864
 30
0.0
 10
413.0510887700323
 20
-313.071413633851
 30
0.0
 10
412.5569356587143
 20
-314.5761350675662
 30
0.0
 10
411.9126003332423
 20
-316.0782205874239
 30
0.0
 10
411.1311877486552
 20
-317.5427812341698
 30
0.0
 10
410.2308281225327
 20
-318.9349670656844
 30
0.0
 10
409.2330268539563
 20
-320.2219820444914
 30
0.0
 10
408.1624771241173
 20
-321.3738512602309
 30
0.0
 10
407.0463492048873
 20
-322.364515228493
 30
0.0
 10
405.9137461257862
 20
-323.1726842940136
 30
0.0
 10
404.7946917651756
 20
-323.7831933027467
 30
0.0
 10
403.7195813739215
 20
-324.1870243566252
 30
0.0
 10
402.7147525118012
 20
-324.3859824196014
 30
0.0
 10
401.8053468630809
 20
-324.3784558216122
 30
0.0
 10
401.0702703215075
 20
-324.2251152273309
 30
0.0
 10
400.6854764313139
 20
-323.9935549354327
 30
0.0
 10
400.5256127656132
 20
-323.897352583896
 30
0.0
  0
SPLINE
  5
141
330
1F
100
AcDbEntity
  8
0
  6
Continuous
 62
     7
370
    25
100
AcDbSpline
210
0.0
220
0.0
230
1.0
 70
     8
 71
     3
 72
    14
 73
    10
 74
     0
 42
0.00000001
 43
0.00000001
 40
0.0
 40
0.0
 40
0.0
 40
0.0
 40
0.053263423059284
 40
0.252880859522828
 40
0.4308897066515582
 40
0.620106493946732
 40
0.803228058569507
 40
0.9731718040509162
 40
1.0
 40
1.0
 40
1.0
 40
1.0
 10
471.733798939468
 20
-101.8356717725772
 30
0.0
 10
471.8049660643075
 20
-101.8645515831799
 30
0.0
 10
472.1428490366266
 20
-102.0016654017933
 30
0.0
 10
472.6051786679353
 20
-102.4291177563342
 30
0.0
 10
473.1437619159357
 20
-103.1427694590263
 30
0.0
 10
473.5429826451119
 20
-104.050217048051
 30
0.0
 10
473.7960478060241
 20
-105.1274558493234
 30
0.0
 10
473.8688236239453
 20
-105.9866538670331
 30
0.0
 10
473.8716558029404
 20
-106.4569478875776
 30
0.0
 10
473.8720419466786
 20
-106.5210685139491
 30
0.0
  0
SPLINE
  5
142
330
1F
100
AcDbEntity
  8
0
  6
Continuous
 62
     7
370
    25
100
AcDbSpline
210
0.0
220
0.0
230
1.0
 70
     8
 71
     3
 72
    24
 73
    20
 74
     0
 42
0.00000001
 43
0.00000001
 40
0.0
 40
0.0
 40
0.0
 40
0.0
 40
0.0319425658033185
 40
0.0932355257672862
 40
0.1547228205888441
 40
0.2163868675723879
 40
0.2781985543836314
 40
0.3401029521313682
 40
0.4020362224311931
 40
0.4639181712433152
 40
0.5256721111960325
 40
0.5872321166356465
 40
0.648543184653092
 40
0.7095851713071927
 40
0.7704275770452319
 40
0.831266070115866
 40
0.8925713048449704
 40
0.9553684571231649
 40
1.0
 40
1.0
 40
1.0
 40
1.0
 10
473.8720419466786
 20
-106.5210685139491
 30
0.0
 10
473.8675909723241
 20
-106.7493965149152
 30
0.0
 10
473.854599250348
 20
-107.415851468739
 30
0.0
 10
473.7077159061155
 20
-108.6002005319282
 30
0.0
 10
473.3760887700395
 20
-110.069800019893
 30
0.0
 10
472.8819356587214
 20
-111.5745214536081
 30
0.0
 10
472.2376003332494
 20
-113.0766069734658
 30
0.0
 10
471.4561877486623
 20
-114.5411676202117
 30
0.0
 10
470.5558281225397
 20
-115.9333534517263
 30
0.0
 10
469.5580268539633
 20
-117.2203684305333
 30
0.0
 10
468.4874771241244
 20
-118.3722376462727
 30
0.0
 10
467.3713492048943
 20
-119.3629016145347
 30
0.0
 10
466.2387461257932
 20
-120.1710706800553
 30
0.0
 10
465.1196917651826
 20
-120.7815796887884
 30
0.0
 10
464.0445813739285
 20
-121.1854107426668
 30
0.0
 10
463.0397525118082
 20
-121.384368805643
 30
0.0
 10
462.1303468630878
 20
-121.3768422076538
 30
0.0
 10
461.3952703215145
 20
-121.2235016133724
 30
0.0
 10
461.0104764313209
 20
-120.9919413214742
 30
0.0
 10
460.8506127656203
 20
-120.8957389699375
 30
0.0
  0
SPLINE
  5
143
330
1F
100
AcDbEntity
  8
0
  6
Continuous
 62
     7
370
    25
100
AcDbSpline
210
0.0
220
0.0
230
1.0
 70
     8
 71
     3
 72
    14
 73
    10
 74
     0
 42
0.00000001
 43
0.00000001
 40
0.0
 40
0.0
 40
0.0
 40
0.0
 40
0.0532634230592412
 40
0.2528808595227713
 40
0.4308897066514933
 40
0.6201064939466568
 40
0.8032280585694299
 40
0.9731718040508408
 40
1.0
 40
1.0
 40
1.0
 40
1.0
 10
386.4213657893059
 20
-249.6011400722984
 30
0.0
 10
386.4925329141452
 20
-249.6300198829011
 30
0.0
 10
386.8304158864644
 20
-249.7671337015146
 30
0.0
 10
387.2927455177729
 20
-250.1945860560552
 30
0.0
 10
387.8313287657734
 20
-250.9082377587473
 30
0.0
 10
388.2305494949497
 20
-251.8156853477718
 30
0.0
 10
388.483614655862
 20
-252.8929241490442
 30
0.0
 10
388.5563904737833
 20
-253.752122166754
 30
0.0
 10
388.5592226527784
 20
-254.2224161872988
 30
0.0
 10
388.5596087965166
 20
-254.2865368136705
 30
0.0
  0
SPLINE
  5
144
330
1F
100
AcDbEntity
  8
0
  6
Continuous
 62
     7
370
    25
100
AcDbSpline
210
0.0
220
0.0
230
1.0
 70
     8
 71
     3
 72
    24
 73
    20
 74
     0
 42
0.00000001
 43
0.00000001
 40
0.0
 40
0.0
 40
0.0
 40
0.0
 40
0.0319425658033185
 40
0.0932355257672724
 40
0.1547228205888354
 40
0.2163868675723803
 40
0.2781985543836195
 40
0.3401029521313614
 40
0.402036222431187
 40
0.46391817124331
 40
0.5256721111960287
 40
0.5872321166356438
 40
0.6485431846530886
 40
0.7095851713071891
 40
0.7704275770452269
 40
0.8312660701158612
 40
0.8925713048449665
 40
0.9553684571231551
 40
1.0
 40
1.0
 40
1.0
 40
1.0
 10
388.5596087965166
 20
-254.2865368136705
 30
0.0
 10
388.5551578221621
 20
-254.5148648146365
 30
0.0
 10
388.5421661001859
 20
-255.1813197684603
 30
0.0
 10
388.3952827559536
 20
-256.3656688316493
 30
0.0
 10
388.0636556198775
 20
-257.835268319614
 30
0.0
 10
387.5695025085595
 20
-259.3399897533291
 30
0.0
 10
386.9251671830875
 20
-260.8420752731869
 30
0.0
 10
386.1437545985004
 20
-262.3066359199328
 30
0.0
 10
385.2433949723778
 20
-263.6988217514474
 30
0.0
 10
384.2455937038014
 20
-264.9858367302544
 30
0.0
 10
383.1750439739624
 20
-266.1377059459939
 30
0.0
 10
382.0589160547324
 20
-267.1283699142559
 30
0.0
 10
380.9263129756313
 20
-267.9365389797765
 30
0.0
 10
379.8072586150207
 20
-268.5470479885096
 30
0.0
 10
378.7321482237667
 20
-268.9508790423881
 30
0.0
 10
377.7273193616463
 20
-269.1498371053643
 30
0.0
 10
376.817913712926
 20
-269.1423105073751
 30
0.0
 10
376.0828371713526
 20
-268.9889699130939
 30
0.0
 10
375.698043281159
 20
-268.7574096211956
 30
0.0
 10
375.5381796154583
 20
-268.6612072696589
 30
0.0
  0
SPLINE
  5
145
330
1F
100
AcDbEntity
  8
0
  6
Continuous
 62
     7
370
    25
100
AcDbSpline
210
0.0
220
0.0
230
1.0
 70
     8
 71
     3
 72
    14
 73
    10
 74
     0
 42
0.00000001
 43
0.00000001
 40
0.0
 40
0.0
 40
0.0
 40
0.0
 40
0.0532634230592823
 40
0.2528808595228183
 40
0.4308897066515424
 40
0.6201064939467091
 40
0.8032280585694862
 40
0.9731718040508991
 40
1.0
 40
1.0
 40
1.0
 40
1.0
 10
411.4087989394659
 20
-165.5151185297742
 30
0.0
 10
411.4799660643054
 20
-165.543998340377
 30
0.0
 10
411.8178490366245
 20
-165.6811121589904
 30
0.0
 10
412.2801786679332
 20
-166.1085645135312
 30
0.0
 10
412.8187619159335
 20
-166.8222162162234
 30
0.0
 10
413.2179826451098
 20
-167.7296638052479
 30
0.0
 10
413.4710478060219
 20
-168.8069026065204
 30
0.0
 10
413.5438236239432
 20
-169.6661006242301
 30
0.0
 10
413.5466558029383
 20
-170.1363946447747
 30
0.0
 10
413.5470419466765
 20
-170.2005152711462
 30
0.0
  0
SPLINE
  5
146
330
1F
100
AcDbEntity
  8
0
  6
Continuous
 62
     7
370
    25
100
AcDbSpline
210
0.0
220
0.0
230
1.0
 70
     8
 71
     3
 72
    24
 73
    20
 74
     0
 42
0.00000001
 43
0.00000001
 40
0.0
 40
0.0
 40
0.0
 40
0.0
 40
0.0319425658033187
 40
0.0932355257672845
 40
0.1547228205888464
 40
0.21638686757239
 40
0.2781985543836343
 40
0.340102952131374
 40
0.4020362224311976
 40
0.4639181712433214
 40
0.5256721111960364
 40
0.5872321166356519
 40
0.6485431846530946
 40
0.7095851713071967
 40
0.7704275770452336
 40
0.8312660701158665
 40
0.8925713048449728
 40
0.955368457123163
 40
1.0
 40
1.0
 40
1.0
 40
1.0
 10
413.5470419466766
 20
-170.2005152711462
 30
0.0
 10
413.542590972322
 20
-170.4288432721122
 30
0.0
 10
413.5295992503458
 20
-171.095298225936
 30
0.0
 10
413.3827159061134
 20
-172.2796472891253
 30
0.0
 10
413.0510887700374
 20
-173.74924677709
 30
0.0
 10
412.5569356587193
 20
-175.2539682108052
 30
0.0
 10
411.9126003332473
 20
-176.7560537306629
 30
0.0
 10
411.1311877486601
 20
-178.2206143774088
 30
0.0
 10
410.2308281225375
 20
-179.6128002089235
 30
0.0
 10
409.2330268539612
 20
-180.8998151877304
 30
0.0
 10
408.1624771241222
 20
-182.0516844034698
 30
0.0
 10
407.0463492048922
 20
-183.0423483717318
 30
0.0
 10
405.9137461257911
 20
-183.8505174372524
 30
0.0
 10
404.7946917651805
 20
-184.4610264459855
 30
0.0
 10
403.7195813739265
 20
-184.8648574998639
 30
0.0
 10
402.7147525118061
 20
-185.06381556284
 30
0.0
 10
401.8053468630858
 20
-185.0562889648508
 30
0.0
 10
401.0702703215125
 20
-184.9029483705695
 30
0.0
 10
400.6854764313189
 20
-184.6713880786712
 30
0.0
 10
400.5256127656183
 20
-184.5751857271346
 30
0.0
  0
LWPOLYLINE
  5
147
330
1F
100
AcDbEntity
  8
0
  6
Continuous
 62
     7
370
    25
100
AcDbPolyline
 90
      143
 70
   128
 43
0.0
 10
565.7352633291
 20
-151.7660881715
 10
565.637331552
 20
-146.7118788852
 10
565.3437279266
 20
-141.780633074
 10
564.8550271959
 20
-136.9820038832
 10
564.1721860145
 20
-132.3253848548
 10
563.296541076
 20
-127.8198915392
 10
562.2298064965
 20
-123.4743436511
 10
560.9740704592
 20
-119.2972478047
 10
559.5317911261
 20
-115.2967808612
 10
557.905791827
 20
-111.4807739225
 10
556.0992555317
 20
-107.8566970013
 10
554.1157186198
 20
-104.4316443985
 10
551.9590639582
 20
-101.2123208153
 10
549.6335132994
 20
-98.2050282289
 10
547.1436190181
 20
-95.4156535557
 10
544.4942551994
 20
-92.8496571276
 10
541.6906080973
 20
-90.5120620031
 10
538.7381659827
 20
-88.4074441345
 10
535.6427083996
 20
-86.53992341
 10
532.4102948516
 20
-84.9131555892
 10
529.0472529401
 20
-83.5303251465
 10
525.5601659775
 20
-82.3941390374
 10
521.9558601003
 20
-81.5068213996
 10
518.2413909065
 20
-80.870109199
 10
514.4240296441
 20
-80.4852488297
 10
510.5112489768
 20
-80.3529936739
 10
506.5107083567
 20
-80.4736026272
 10
502.4302390298
 20
-80.846839592
 10
498.2778287066
 20
-81.4719739394
 10
494.0616059251
 20
-82.3477819396
 10
489.7898241395
 20
-83.4725491573
 10
485.4708455632
 20
-84.8440738078
 10
481.1131247997
 20
-86.4596710671
 10
476.7251922919
 20
-88.3161783279
 10
472.3156376237
 20
-90.40996139
 10
467.8930927056
 20
-92.7369215747
 10
463.4662148769
 20
-95.2925037481
 10
459.0436699588
 20
-98.0717052382
 10
454.6341152907
 20
-101.0690856275
 10
450.2461827828
 20
-104.2787774031
 10
445.8884620193
 20
-107.6944974427
 10
441.569483443
 20
-111.3095593139
 10
437.2977016574
 20
-115.1168863634
 10
433.0814788759
 20
-119.1090255695
 10
428.9290685527
 20
-123.2781621324
 10
424.8485992258
 20
-127.6161347714
 10
420.8480586057
 20
-132.1144517015
 10
416.9352779384
 20
-136.7643072559
 10
413.117916676
 20
-141.5565991241
 10
409.4034474822
 20
-146.4819461696
 10
405.799141605
 20
-151.5307067945
 10
402.3120546424
 20
-156.6929978125
 10
398.9490127309
 20
-161.9587137967
 10
395.716599183
 20
-167.3175468607
 10
392.6211415999
 20
-172.7590068372
 10
389.6686994852
 20
-178.2724418127
 10
386.8650523831
 20
-183.8470589793
 10
384.2156885644
 20
-189.4719457622
 10
381.7257942831
 20
-195.1360911813
 10
379.4002436244
 20
-200.828407406
 10
377.2435889627
 20
-206.53775146
 10
375.2600520508
 20
-212.2529470341
 10
373.4535157555
 20
-217.9628063647
 10
371.8275164564
 20
-223.656152134
 10
370.3852371234
 20
-229.3218393502
 10
369.129501086
 20
-234.9487771646
 10
368.0627665065
 20
-240.5259505822
 10
367.1871215681
 20
-246.042442024
 10
366.5042803866
 20
-251.4874526992
 10
366.0155796559
 20
-256.8503237434
 10
365.7219760305
 20
-262.1205570849
 10
365.6240442534
 20
-267.2878359944
 10
365.7219760305
 20
-272.3420452808
 10
366.0155796559
 20
-277.273291092
 10
366.5042803866
 20
-282.0719202828
 10
367.1871215681
 20
-286.7285393112
 10
368.0627665065
 20
-291.2340326268
 10
369.129501086
 20
-295.5795805148
 10
370.3852371234
 20
-299.7566763613
 10
371.8275164564
 20
-303.7571433048
 10
373.4535157555
 20
-307.5731502435
 10
375.2600520508
 20
-311.1972271647
 10
377.2435889627
 20
-314.6222797675
 10
379.4002436244
 20
-317.8416033506
 10
381.7257942831
 20
-320.8488959371
 10
384.2156885644
 20
-323.6382706103
 10
386.8650523831
 20
-326.2042670384
 10
389.6686994852
 20
-328.5418621629
 10
392.6211415999
 20
-330.6464800315
 10
395.716599183
 20
-332.514000756
 10
398.9490127309
 20
-334.1407685767
 10
402.3120546424
 20
-335.5235990194
 10
405.799141605
 20
-336.6597851285
 10
409.4034474822
 20
-337.5471027663
 10
413.117916676
 20
-338.1838149669
 10
416.9352779384
 20
-338.5686753363
 10
420.8480586057
 20
-338.7009304921
 10
424.8485992258
 20
-338.5803215388
 10
428.9290685527
 20
-338.207084574
 10
433.0814788759
 20
-337.5819502265
 10
437.2977016574
 20
-336.7061422264
 10
441.569483443
 20
-335.5813750087
 10
445.8884620193
 20
-334.2098503582
 10
450.2461827828
 20
-332.5942530988
 10
454.6341152907
 20
-330.737745838
 10
459.0436699588
 20
-328.643962776
 10
463.4662148769
 20
-326.3170025913
 10
467.8930927056
 20
-323.7614204179
 10
472.3156376237
 20
-320.9822189278
 10
476.7251922919
 20
-317.9848385385
 10
481.1131247997
 20
-314.7751467629
 10
485.4708455632
 20
-311.3594267233
 10
489.7898241395
 20
-307.744364852
 10
494.0616059251
 20
-303.9370378026
 10
498.2778287066
 20
-299.9448985965
 10
502.4302390298
 20
-295.7757620336
 10
506.5107083567
 20
-291.4377893945
 10
510.5112489768
 20
-286.9394724645
 10
514.4240296441
 20
-282.2896169101
 10
518.2413909065
 20
-277.4973250419
 10
521.9558601003
 20
-272.5719779963
 10
525.5601659775
 20
-267.5232173715
 10
529.0472529401
 20
-262.3609263535
 10
532.4102948516
 20
-257.0952103693
 10
535.6427083996
 20
-251.7363773053
 10
538.7381659827
 20
-246.2949173288
 10
541.6906080973
 20
-240.7814823533
 10
544.4942551994
 20
-235.2068651867
 10
547.1436190181
 20
-229.5819784038
 10
549.6335132994
 20
-223.9178329847
 10
551.9590639582
 20
-218.22551676
 10
554.1157186198
 20
-212.516172706
 10
556.0992555317
 20
-206.8009771318
 10
557.905791827
 20
-201.0911178013
 10
559.5317911261
 20
-195.397772032
 10
560.9740704592
 20
-189.7320848158
 10
562.2298064965
 20
-184.1051470014
 10
563.296541076
 20
-178.5279735838
 10
564.1721860145
 20
-173.0114821419
 10
564.8550271959
 20
-167.5664714668
 10
565.3437279266
 20
-162.2036004225
 10
565.637331552
 20
-156.933367081
 10
565.7352633291
 20
-151.7660881715
  0
ARC
  5
148
330
1F
100
AcDbEntity
  8
0
  6
Continuous
 62
     7
370
    25
100
AcDbCircle
 10
419.4885327693
 20
-291.1594093415
 30
0.0
 40
48.69284924714663
100
AcDbArc
 50
219.9954526266
 51
258.703432217
  0
ARC
  5
149
330
1F
100
AcDbEntity
  8
0
  6
Continuous
 62
     7
370
    25
100
AcDbCircle
 10
513.2503357991
 20
-128.7579103997
 30
0.0
 40
48.74969125609229
100
AcDbArc
 50
39.9893257703
 51
79.882229621
  0
ARC
  5
14A
330
1F
100
AcDbEntity
  8
0
  6
Continuous
 62
     7
370
    25
100
AcDbCircle
 10
528.5057977342
 20
-138.0132083624
 30
0.0
 40
49.15522815763335
100
AcDbArc
 50
40.4465630798
 51
59.8600488215
  0
ARC
  5
14B
330
1F
100
AcDbEntity
  8
0
  6
Continuous
 62
     7
370
    25
100
AcDbCircle
 10
435.2217235166
 20
-299.5572834578
 30
0.0
 40
49.30182967505736
100
AcDbArc
 50
240.1717409608
 51
259.7798236698
  0
LWPOLYLINE
  5
14C
330
1F
100
AcDbEntity
  8
0
  6
Continuous
 62
     7
370
    25
100
AcDbPolyline
 90
       42
 70
   128
 43
0.0
 10
388.8525020153
 20
-253.8783327578
 10
388.7530581135
 20
-255.431472946
 10
388.4570572889
 20
-257.0630243296
 10
387.9714375498
 20
-258.7347447272
 10
387.3075814114
 20
-260.4074504294
 10
386.481049099
 20
-262.0419346324
 10
385.5112138294
 20
-263.5998864116
 10
384.4208077192
 20
-265.0447886979
 10
383.2353889636
 20
-266.3427742064
 10
381.9827427735
 20
-267.4634192568
 10
380.6922301139
 20
-268.3804568789
 10
379.3940995076
 20
-269.0723924882
 10
378.118778036
 20
-269.5230077004
 10
376.8961581533
 20
-269.7217404769
 10
375.7548970334
 20
-269.6639326898
 10
374.7217448697
 20
-269.3509393047
 10
373.8209178731
 20
-268.7900966212
 10
373.0735306651
 20
-267.9945503165
 10
372.4971013682
 20
-266.9829473216
 10
372.1051409967
 20
-265.7789987535
 10
371.9068367694
 20
-264.4109241461
 10
371.9068367694
 20
-262.9107900086
 10
372.1051409967
 20
-261.3137582139
 10
372.4971013682
 20
-259.6572618335
 10
373.0735306651
 20
-257.9801277388
 10
373.8209178731
 20
-256.3216665313
 10
374.7217448697
 20
-254.7207511361
 10
375.7548970334
 20
-253.2149056533
 10
376.8961581533
 20
-251.8394258246
 10
378.118778036
 20
-250.6265517315
 10
379.3940995076
 20
-249.6047121146
 10
380.6922301139
 20
-248.7978580286
 10
381.9827427735
 20
-248.2249014493
 10
383.2353889636
 20
-247.8992719934
 10
384.4208077192
 20
-247.8286021393
 10
385.5112138294
 20
-248.0145483285
 10
386.481049099
 20
-248.4527521399
 10
387.3075814114
 20
-249.1329424476
 10
387.9714375498
 20
-250.0391761673
 10
388.4570572889
 20
-251.1502119487
 10
388.7530581135
 20
-252.4400080547
 10
388.8525020153
 20
-253.8783327578
  0
LWPOLYLINE
  5
14D
330
1F
100
AcDbEntity
  8
0
  6
Continuous
 62
     7
370
    25
100
AcDbPolyline
 90
       42
 70
   128
 43
0.0
 10
534.4899351655
 20
-239.4647156089
 10
534.3904912637
 20
-241.0178557971
 10
534.094490439
 20
-242.6494071808
 10
533.6088707
 20
-244.3211275783
 10
532.9450145616
 20
-245.9938332805
 10
532.1184822492
 20
-247.6283174835
 10
531.1486469795
 20
-249.1862692627
 10
530.0582408694
 20
-250.6311715491
 10
528.8728221138
 20
-251.9291570575
 10
527.6201759237
 20
-253.0498021079
 10
526.329663264
 20
-253.9668397301
 10
525.0315326578
 20
-254.6587753394
 10
523.7562111861
 20
-255.1093905516
 10
522.5335913035
 20
-255.308123328
 10
521.3923301836
 20
-255.250315541
 10
520.3591780198
 20
-254.9373221558
 10
519.4583510233
 20
-254.3764794723
 10
518.7109638152
 20
-253.5809331676
 10
518.1345345184
 20
-252.5693301728
 10
517.7425741468
 20
-251.3653816046
 10
517.5442699196
 20
-249.9973069972
 10
517.5442699196
 20
-248.4971728597
 10
517.7425741468
 20
-246.900141065
 10
518.1345345184
 20
-245.2436446847
 10
518.7109638152
 20
-243.5665105899
 10
519.4583510233
 20
-241.9080493824
 10
520.3591780198
 20
-240.3071339872
 10
521.3923301836
 20
-238.8012885044
 10
522.5335913035
 20
-237.4258086757
 10
523.7562111861
 20
-236.2129345826
 10
525.0315326578
 20
-235.1910949657
 10
526.329663264
 20
-234.3842408797
 10
527.6201759237
 20
-233.8112843004
 10
528.8728221138
 20
-233.4856548445
 10
530.0582408694
 20
-233.4149849904
 10
531.1486469795
 20
-233.6009311796
 10
532.1184822492
 20
-234.039134991
 10
532.9450145616
 20
-234.7193252988
 10
533.6088707
 20
-235.6255590184
 10
534.094490439
 20
-236.7365947998
 10
534.3904912637
 20
-238.0263909058
 10
534.4899351655
 20
-239.4647156089
  0
LWPOLYLINE
  5
14E
330
1F
100
AcDbEntity
  8
0
  6
Continuous
 62
     7
370
    25
100
AcDbPolyline
 90
       42
 70
   128
 43
0.0
 10
534.4899351655
 20
-100.1425487521
 10
534.3904912637
 20
-101.6956889403
 10
534.094490439
 20
-103.327240324
 10
533.6088707
 20
-104.9989607216
 10
532.9450145616
 20
-106.6716664238
 10
532.1184822492
 20
-108.3061506267
 10
531.1486469795
 20
-109.864102406
 10
530.0582408694
 20
-111.3090046923
 10
528.8728221138
 20
-112.6069902008
 10
527.6201759237
 20
-113.7276352512
 10
526.329663264
 20
-114.6446728733
 10
525.0315326578
 20
-115.3366084826
 10
523.7562111861
 20
-115.7872236948
 10
522.5335913035
 20
-115.9859564713
 10
521.3923301836
 20
-115.9281486842
 10
520.3591780198
 20
-115.6151552991
 10
519.4583510233
 20
-115.0543126156
 10
518.7109638152
 20
-114.2587663108
 10
518.1345345184
 20
-113.247163316
 10
517.7425741468
 20
-112.0432147479
 10
517.5442699196
 20
-110.6751401404
 10
517.5442699196
 20
-109.175006003
 10
517.7425741468
 20
-107.5779742082
 10
518.1345345184
 20
-105.9214778279
 10
518.7109638152
 20
-104.2443437331
 10
519.4583510233
 20
-102.5858825256
 10
520.3591780198
 20
-100.9849671305
 10
521.3923301836
 20
-99.4791216477
 10
522.5335913035
 20
-98.103641819
 10
523.7562111861
 20
-96.8907677258
 10
525.0315326578
 20
-95.868928109
 10
526.329663264
 20
-95.0620740229
 10
527.6201759237
 20
-94.4891174437
 10
528.8728221138
 20
-94.1634879878
 10
530.0582408694
 20
-94.0928181337
 10
531.1486469795
 20
-94.2787643229
 10
532.1184822492
 20
-94.7169681343
 10
532.9450145616
 20
-95.397158442
 10
533.6088707
 20
-96.3033921617
 10
534.094490439
 20
-97.414427943
 10
534.3904912637
 20
-98.704224049
 10
534.4899351655
 20
-100.1425487521
  0
LWPOLYLINE
  5
14F
330
1F
100
AcDbEntity
  8
0
  6
Continuous
 62
     7
370
    25
100
AcDbPolyline
 90
       42
 70
   128
 43
0.0
 10
474.1649351655
 20
-106.112864458
 10
474.0654912637
 20
-107.6660046462
 10
473.769490439
 20
-109.2975560299
 10
473.2838707
 20
-110.9692764275
 10
472.6200145616
 20
-112.6419821297
 10
471.7934822492
 20
-114.2764663326
 10
470.8236469795
 20
-115.8344181119
 10
469.7332408694
 20
-117.2793203982
 10
468.5478221138
 20
-118.5773059067
 10
467.2951759237
 20
-119.6979509571
 10
466.004663264
 20
-120.6149885792
 10
464.7065326578
 20
-121.3069241885
 10
463.4312111861
 20
-121.7575394007
 10
462.2085913035
 20
-121.9562721772
 10
461.0673301836
 20
-121.8984643901
 10
460.0341780198
 20
-121.585471005
 10
459.1333510233
 20
-121.0246283215
 10
458.3859638152
 20
-120.2290820168
 10
457.8095345184
 20
-119.2174790219
 10
457.4175741468
 20
-118.0135304538
 10
457.2192699196
 20
-116.6454558463
 10
457.2192699196
 20
-115.1453217089
 10
457.4175741468
 20
-113.5482899142
 10
457.8095345184
 20
-111.8917935338
 10
458.3859638152
 20
-110.214659439
 10
459.1333510233
 20
-108.5561982316
 10
460.0341780198
 20
-106.9552828364
 10
461.0673301836
 20
-105.4494373536
 10
462.2085913035
 20
-104.0739575249
 10
463.4312111861
 20
-102.8610834317
 10
464.7065326578
 20
-101.8392438149
 10
466.004663264
 20
-101.0323897289
 10
467.2951759237
 20
-100.4594331496
 10
468.5478221138
 20
-100.1338036937
 10
469.7332408694
 20
-100.0631338396
 10
470.8236469795
 20
-100.2490800288
 10
471.7934822492
 20
-100.6872838402
 10
472.6200145616
 20
-101.3674741479
 10
473.2838707
 20
-102.2737078676
 10
473.769490439
 20
-103.384743649
 10
474.0654912637
 20
-104.674539755
 10
474.1649351655
 20
-106.112864458
  0
LWPOLYLINE
  5
150
330
1F
100
AcDbEntity
  8
0
  6
Continuous
 62
     7
370
    25
100
AcDbPolyline
 90
      117
 70
   128
 43
0.0
 10
532.854798004
 20
-170.7475767714
 10
532.7562798679
 20
-175.004079776
 10
532.4610144304
 20
-179.3618443426
 10
531.9698677559
 20
-183.808088397
 10
531.2842804622
 20
-188.3297703391
 10
530.4062634949
 20
-192.9136272969
 10
529.3383922291
 20
-197.546214028
 10
528.0837989152
 20
-202.2139423575
 10
526.6461634916
 20
-206.9031210338
 10
525.0297027906
 20
-211.599995888
 10
523.23915817
 20
-216.2907901769
 10
521.2797816057
 20
-220.9617449925
 10
519.1573202868
 20
-225.5991596197
 10
516.8779997579
 20
-230.1894317224
 10
514.448505659
 20
-234.7190972415
 10
511.8759641147
 20
-239.1748698876
 10
509.1679208328
 20
-243.5436801118
 10
506.3323189707
 20
-247.8127134411
 10
503.3774758373
 20
-251.9694480651
 10
500.3120584965
 20
-256.001691565
 10
497.1450583457
 20
-259.8976166758
 10
493.8857647419
 20
-263.6457959779
 10
490.5437377548
 20
-267.2352354157
 10
487.1287801255
 20
-270.6554065447
 10
483.6509085129
 20
-273.8962774139
 10
480.1203241139
 20
-276.9483419905
 10
476.5473827407
 20
-279.8026480433
 10
472.942564446
 20
-282.4508234008
 10
469.316442783
 20
-284.8851005085
 10
465.6796537913
 20
-287.0983392121
 10
462.0428647995
 20
-289.0840477013
 10
458.4167431365
 20
-290.8364015508
 10
454.8119248418
 20
-292.3502608049
 10
451.2389834686
 20
-293.6211850536
 10
447.7083990696
 20
-294.6454464571
 10
444.230527457
 20
-295.4200406802
 10
440.8155698277
 20
-295.9426957045
 10
437.4735428406
 20
-296.211878493
 10
434.2142492368
 20
-296.2267994859
 10
431.047249086
 20
-295.9874149176
 10
427.9818317452
 20
-295.4944269442
 10
425.0269886118
 20
-294.7492815844
 10
422.1913867497
 20
-293.7541644778
 10
419.4833434678
 20
-292.5119944745
 10
416.9108019235
 20
-291.026415073
 10
414.4813078246
 20
-289.3017837337
 10
412.2019872957
 20
-287.3431590975
 10
410.0795259768
 20
-285.1562861479
 10
408.1201494125
 20
-282.74757936
 10
406.3296047919
 20
-280.124103886
 10
404.7131440909
 20
-277.2935548313
 10
403.2755086673
 20
-274.264234684
 10
402.0209153534
 20
-271.0450289621
 10
400.9530440876
 20
-267.6453801506
 10
400.0750271203
 20
-264.0752600053
 10
399.3894398266
 20
-260.3451403036
 10
398.8982931521
 20
-256.4659621293
 10
398.6030277146
 20
-252.4491037804
 10
398.5045095785
 20
-248.3063473946
 10
398.6030277146
 20
-244.04984439
 10
398.8982931521
 20
-239.6920798233
 10
399.3894398266
 20
-235.245835769
 10
400.0750271203
 20
-230.7241538269
 10
400.9530440876
 20
-226.1402968691
 10
402.0209153534
 20
-221.5077101379
 10
403.2755086673
 20
-216.8399818085
 10
404.7131440909
 20
-212.1508031322
 10
406.3296047919
 20
-207.453928278
 10
408.1201494125
 20
-202.7631339891
 10
410.0795259768
 20
-198.0921791734
 10
412.2019872957
 20
-193.4547645462
 10
414.4813078246
 20
-188.8644924436
 10
416.9108019235
 20
-184.3348269245
 10
419.4833434678
 20
-179.8790542784
 10
422.1913867497
 20
-175.5102440541
 10
425.0269886118
 20
-171.2412107249
 10
427.9818317452
 20
-167.0844761009
 10
431.047249086
 20
-163.052232601
 10
434.2142492368
 20
-159.1563074902
 10
437.4735428406
 20
-155.4081281881
 10
440.8155698277
 20
-151.8186887503
 10
444.230527457
 20
-148.3985176213
 10
447.7083990696
 20
-145.1576467521
 10
451.2389834686
 20
-142.1055821755
 10
454.8119248418
 20
-139.2512761227
 10
458.4167431365
 20
-136.6031007651
 10
462.0428647995
 20
-134.1688236575
 10
465.6796537913
 20
-131.9555849538
 10
469.316442783
 20
-129.9698764647
 10
472.942564446
 20
-128.2175226152
 10
476.5473827407
 20
-126.7036633611
 10
480.1203241139
 20
-125.4327391124
 10
483.6509085129
 20
-124.4084777089
 10
487.1287801255
 20
-123.6338834858
 10
490.5437377548
 20
-123.1112284614
 10
493.8857647419
 20
-122.842045673
 10
497.1450583457
 20
-122.82712468
 10
500.3120584965
 20
-123.0665092483
 10
503.3774758373
 20
-123.5594972218
 10
506.3323189707
 20
-124.3046425816
 10
509.1679208328
 20
-125.2997596882
 10
511.8759641147
 20
-126.5419296915
 10
514.448505659
 20
-128.027509093
 10
516.8779997579
 20
-129.7521404323
 10
519.1573202868
 20
-131.7107650685
 10
521.2797816057
 20
-133.8976380181
 10
523.23915817
 20
-136.3063448059
 10
525.0297027906
 20
-138.92982028
 10
526.6461634916
 20
-141.7603693347
 10
528.0837989152
 20
-144.789689482
 10
529.3383922291
 20
-148.0088952039
 10
530.4062634949
 20
-151.4085440153
 10
531.2842804622
 20
-154.9786641607
 10
531.9698677559
 20
-158.7087838624
 10
532.4610144304
 20
-162.5879620366
 10
532.7562798679
 20
-166.6048203855
 10
532.854798004
 20
-170.7475767714
  0
LWPOLYLINE
  5
151
330
1F
100
AcDbEntity
  8
0
  6
Continuous
 62
     7
370
    25
100
AcDbPolyline
 90
       42
 70
   128
 43
0.0
 10
474.1649351655
 20
-303.1441623661
 10
474.0654912637
 20
-304.6973025543
 10
473.769490439
 20
-306.328853938
 10
473.2838707
 20
-308.0005743355
 10
472.6200145616
 20
-309.6732800377
 10
471.7934822492
 20
-311.3077642407
 10
470.8236469795
 20
-312.8657160199
 10
469.7332408694
 20
-314.3106183063
 10
468.5478221138
 20
-315.6086038147
 10
467.2951759237
 20
-316.7292488651
 10
466.004663264
 20
-317.6462864873
 10
464.7065326578
 20
-318.3382220966
 10
463.4312111861
 20
-318.7888373088
 10
462.2085913035
 20
-318.9875700852
 10
461.0673301836
 20
-318.9297622982
 10
460.0341780198
 20
-318.616768913
 10
459.1333510233
 20
-318.0559262295
 10
458.3859638152
 20
-317.2603799248
 10
457.8095345183
 20
-316.24877693
 10
457.4175741468
 20
-315.0448283618
 10
457.2192699196
 20
-313.6767537544
 10
457.2192699196
 20
-312.1766196169
 10
457.4175741468
 20
-310.5795878222
 10
457.8095345183
 20
-308.9230914419
 10
458.3859638152
 20
-307.2459573471
 10
459.1333510233
 20
-305.5874961396
 10
460.0341780198
 20
-303.9865807444
 10
461.0673301836
 20
-302.4807352616
 10
462.2085913035
 20
-301.1052554329
 10
463.4312111861
 20
-299.8923813398
 10
464.7065326578
 20
-298.8705417229
 10
466.004663264
 20
-298.0636876369
 10
467.2951759237
 20
-297.4907310576
 10
468.5478221138
 20
-297.1651016017
 10
469.7332408694
 20
-297.0944317476
 10
470.8236469795
 20
-297.2803779368
 10
471.7934822492
 20
-297.7185817482
 10
472.6200145616
 20
-298.398772056
 10
473.2838707
 20
-299.3050057756
 10
473.769490439
 20
-300.416041557
 10
474.0654912637
 20
-301.705837663
 10
474.1649351655
 20
-303.1441623661
  0
LWPOLYLINE
  5
152
330
1F
100
AcDbEntity
  8
0
  6
Continuous
 62
     7
370
    25
100
AcDbPolyline
 90
       42
 70
   128
 43
0.0
 10
559.4773683156
 20
-155.3786940664
 10
559.3779244138
 20
-156.9318342546
 10
559.0819235892
 20
-158.5633856382
 10
558.5963038501
 20
-160.2351060358
 10
557.9324477118
 20
-161.907811738
 10
557.1059153993
 20
-163.542295941
 10
556.1360801297
 20
-165.1002477202
 10
555.0456740195
 20
-166.5451500065
 10
553.8602552639
 20
-167.843135515
 10
552.6076090738
 20
-168.9637805654
 10
551.3170964142
 20
-169.8808181875
 10
550.0189658079
 20
-170.5727537968
 10
548.7436443363
 20
-171.023369009
 10
547.5210244536
 20
-171.2221017855
 10
546.3797633337
 20
-171.1642939984
 10
545.34661117
 20
-170.8513006133
 10
544.4457841734
 20
-170.2904579298
 10
543.6983969654
 20
-169.4949116251
 10
543.1219676685
 20
-168.4833086302
 10
542.730007297
 20
-167.2793600621
 10
542.5317030697
 20
-165.9112854547
 10
542.5317030697
 20
-164.4111513172
 10
542.730007297
 20
-162.8141195225
 10
543.1219676685
 20
-161.1576231421
 10
543.6983969654
 20
-159.4804890474
 10
544.4457841734
 20
-157.8220278399
 10
545.34661117
 20
-156.2211124447
 10
546.3797633337
 20
-154.7152669619
 10
547.5210244536
 20
-153.3397871332
 10
548.7436443363
 20
-152.1269130401
 10
550.0189658079
 20
-151.1050734232
 10
551.3170964142
 20
-150.2982193372
 10
552.6076090738
 20
-149.7252627579
 10
553.8602552639
 20
-149.399633302
 10
555.0456740195
 20
-149.3289634479
 10
556.1360801297
 20
-149.5149096371
 10
557.1059153993
 20
-149.9531134485
 10
557.9324477118
 20
-150.6333037562
 10
558.5963038501
 20
-151.5395374759
 10
559.0819235892
 20
-152.6505732573
 10
559.3779244138
 20
-153.9403693633
 10
559.4773683156
 20
-155.3786940664
  0
LWPOLYLINE
  5
153
330
1F
100
AcDbEntity
  8
0
  6
Continuous
 62
     7
370
    25
100
AcDbPolyline
 90
       42
 70
   128
 43
0.0
 10
413.8399351655
 20
-309.114478072
 10
413.7404912637
 20
-310.6676182602
 10
413.444490439
 20
-312.2991696439
 10
412.9588707
 20
-313.9708900414
 10
412.2950145616
 20
-315.6435957437
 10
411.4684822492
 20
-317.2780799466
 10
410.4986469795
 20
-318.8360317259
 10
409.4082408694
 20
-320.2809340122
 10
408.2228221138
 20
-321.5789195206
 10
406.9701759237
 20
-322.699564571
 10
405.679663264
 20
-323.6166021932
 10
404.3815326578
 20
-324.3085378025
 10
403.1062111861
 20
-324.7591530147
 10
401.8835913035
 20
-324.9578857912
 10
400.7423301836
 20
-324.9000780041
 10
399.7091780198
 20
-324.5870846189
 10
398.8083510233
 20
-324.0262419354
 10
398.0609638152
 20
-323.2306956307
 10
397.4845345183
 20
-322.2190926359
 10
397.0925741468
 20
-321.0151440677
 10
396.8942699196
 20
-319.6470694603
 10
396.8942699196
 20
-318.1469353229
 10
397.0925741468
 20
-316.5499035281
 10
397.4845345183
 20
-314.8934071478
 10
398.0609638152
 20
-313.216273053
 10
398.8083510233
 20
-311.5578118455
 10
399.7091780198
 20
-309.9568964504
 10
400.7423301836
 20
-308.4510509675
 10
401.8835913035
 20
-307.0755711388
 10
403.1062111861
 20
-305.8626970457
 10
404.3815326578
 20
-304.8408574288
 10
405.679663264
 20
-304.0340033428
 10
406.9701759237
 20
-303.4610467635
 10
408.2228221138
 20
-303.1354173076
 10
409.4082408694
 20
-303.0647474535
 10
410.4986469795
 20
-303.2506936427
 10
411.4684822492
 20
-303.6888974542
 10
412.2950145616
 20
-304.3690877619
 10
412.9588707
 20
-305.2753214816
 10
413.444490439
 20
-306.3863572629
 10
413.7404912637
 20
-307.6761533689
 10
413.8399351655
 20
-309.114478072
  0
LWPOLYLINE
  5
154
330
1F
100
AcDbEntity
  8
0
  6
Continuous
 62
     7
370
    25
100
AcDbPolyline
 90
       42
 70
   128
 43
0.0
 10
413.8399351655
 20
-169.7923112152
 10
413.7404912637
 20
-171.3454514034
 10
413.444490439
 20
-172.9770027871
 10
412.9588707
 20
-174.6487231847
 10
412.2950145616
 20
-176.3214288869
 10
411.4684822492
 20
-177.9559130898
 10
410.4986469795
 20
-179.5138648691
 10
409.4082408694
 20
-180.9587671554
 10
408.2228221138
 20
-182.2567526639
 10
406.9701759237
 20
-183.3773977143
 10
405.679663264
 20
-184.2944353364
 10
404.3815326578
 20
-184.9863709457
 10
403.1062111861
 20
-185.4369861579
 10
401.8835913035
 20
-185.6357189344
 10
400.7423301836
 20
-185.5779111473
 10
399.7091780198
 20
-185.2649177622
 10
398.8083510233
 20
-184.7040750787
 10
398.0609638152
 20
-183.9085287739
 10
397.4845345184
 20
-182.8969257791
 10
397.0925741468
 20
-181.692977211
 10
396.8942699196
 20
-180.3249026035
 10
396.8942699196
 20
-178.8247684661
 10
397.0925741468
 20
-177.2277366714
 10
397.4845345184
 20
-175.571240291
 10
398.0609638152
 20
-173.8941061962
 10
398.8083510233
 20
-172.2356449887
 10
399.7091780198
 20
-170.6347295936
 10
400.7423301836
 20
-169.1288841108
 10
401.8835913035
 20
-167.7534042821
 10
403.1062111861
 20
-166.5405301889
 10
404.3815326578
 20
-165.5186905721
 10
405.679663264
 20
-164.7118364861
 10
406.9701759237
 20
-164.1388799068
 10
408.2228221138
 20
-163.8132504509
 10
409.4082408694
 20
-163.7425805968
 10
410.4986469795
 20
-163.928526786
 10
411.4684822492
 20
-164.3667305974
 10
412.2950145616
 20
-165.0469209051
 10
412.9588707
 20
-165.9531546248
 10
413.444490439
 20
-167.0641904062
 10
413.7404912637
 20
-168.3539865122
 10
413.8399351655
 20
-169.7923112152
  0
LWPOLYLINE
  5
155
330
1F
100
AcDbEntity
  8
0
  6
Continuous
 62
     7
370
    25
100
AcDbPolyline
 90
        3
 70
   128
 43
0.0
 10
532.2113136019
 20
-235.2448308495
 10
532.0998915389
 20
-235.1830629869
 10
532.0389991569
 20
-235.1514019163
  0
ARC
  5
156
330
1F
100
AcDbEntity
  8
0
  6
Continuous
 62
     7
370
    25
100
AcDbCircle
 10
497.3606934247
 20
-156.2630255074
 30
0.0
 40
32.02427931987488
100
AcDbArc
 50
43.0065077899
 51
79.5985570297
  0
ARC
  5
157
330
1F
100
AcDbEntity
  8
0
  6
Continuous
 62
     7
370
    25
100
AcDbCircle
 10
435.4152786359
 20
-263.6018082443
 30
0.0
 40
32.0301995758574
100
AcDbArc
 50
222.7445091704
 51
259.6192935841
  0
LINE
  5
158
330
1F
100
AcDbEntity
  8
0
  6
Continuous
 62
     7
370
    25
100
AcDbLine
 10
427.8166812816
 20
-294.7116405031
 30
0.0
 11
427.4653288818
 21
-294.3396759721
 31
0.0
  0
LWPOLYLINE
  5
159
330
1F
100
AcDbEntity
  8
0
  6
Continuous
 62
     7
370
    25
100
AcDbPolyline
 90
        3
 70
   128
 43
0.0
 10
518.6568720988
 20
-133.7375839177
 10
519.2441126251
 20
-133.8531111905
 10
520.5131890493
 20
-134.1391810048
  0
LWPOLYLINE
  5
15A
330
1F
100
AcDbEntity
  8
0
  6
Continuous
 62
     7
370
    25
100
AcDbPolyline
 90
        3
 70
   128
 43
0.0
 10
557.1987467521
 20
-151.158809307
 10
557.0873246891
 20
-151.0970414444
 10
557.0264323071
 20
-151.0653803738
  0
LWPOLYLINE
  5
15B
330
1F
100
AcDbEntity
  8
0
  6
Continuous
 62
     7
370
    25
100
AcDbPolyline
 90
        3
 70
   128
 43
0.0
 10
471.8863136019
 20
-298.9242776067
 10
471.7748915389
 20
-298.8625097441
 10
471.7139991569
 20
-298.8308486735
  0
LWPOLYLINE
  5
15C
330
1F
100
AcDbEntity
  8
0
  6
Continuous
 62
     7
370
    25
100
AcDbPolyline
 90
        3
 70
   128
 43
0.0
 10
532.2113136019
 20
-95.9226639928
 10
532.0998915389
 20
-95.8608961302
 10
532.0389991569
 20
-95.8292350596
  0
LWPOLYLINE
  5
15D
330
1F
100
AcDbEntity
  8
0
  6
Continuous
 62
     7
370
    25
100
AcDbPolyline
 90
        3
 70
   128
 43
0.0
 10
411.5613136019
 20
-304.8945933127
 10
411.4498915389
 20
-304.83282545
 10
411.3889991569
 20
-304.8011643794
  0
LWPOLYLINE
  5
15E
330
1F
100
AcDbEntity
  8
0
  6
Continuous
 62
     7
370
    25
100
AcDbPolyline
 90
        3
 70
   128
 43
0.0
 10
471.8863136019
 20
-101.8929796987
 10
471.7748915389
 20
-101.8312118361
 10
471.7139991569
 20
-101.7995507655
  0
LWPOLYLINE
  5
15F
330
1F
100
AcDbEntity
  8
0
  6
Continuous
 62
     7
370
    25
100
AcDbPolyline
 90
        3
 70
   128
 43
0.0
 10
386.5738804518
 20
-249.6584479984
 10
386.4624583887
 20
-249.5966801358
 10
386.4015660068
 20
-249.5650190652
  0
LWPOLYLINE
  5
160
330
1F
100
AcDbEntity
  8
0
  6
Continuous
 62
     7
370
    25
100
AcDbPolyline
 90
        3
 70
   128
 43
0.0
 10
411.5613136019
 20
-165.5724264559
 10
411.4498915389
 20
-165.5106585933
 10
411.3889991569
 20
-165.4789975227
  0
LWPOLYLINE
  5
161
330
1F
100
AcDbEntity
  8
0
  6
Continuous
 62
     1
370
    25
100
AcDbPolyline
 90
       50
 70
   128
 43
0.0
 10
567.1494768915
 20
-151.7660881715
 10
567.050853017
 20
-156.9698849532
 10
566.7551744544
 20
-162.27736376
 10
566.2630200082
 20
-167.678134953
 10
565.575353094
 20
-173.1616262689
 10
564.6935198521
 20
-178.717103516
 10
563.6192465124
 20
-184.3336915867
 10
562.3546360154
 20
-190.0003957461
 10
560.9021638955
 20
-195.7061231547
 10
559.2646734353
 20
-201.4397045831
 10
557.445370099
 20
-207.1899162764
 10
555.4478152585
 20
-212.9455019253
 10
553.2759192211
 20
-218.6951947005
 10
550.9339335753
 20
-224.4277393084
 10
548.4264428681
 20
-230.1319140238
 10
545.7583556301
 20
-235.7965526567
 10
542.9348947676
 20
-241.4105664111
 10
539.9615873376
 20
-246.9629655914
 10
536.8442537292
 20
-252.4428811154
 10
533.5889962693
 20
-257.8395857912
 10
530.2021872771
 20
-263.1425153159
 10
526.6904565904
 20
-268.341288956
 10
523.0606785869
 20
-273.4257298679
 10
519.3199587274
 20
-278.3858850198
 10
515.4756196468
 20
-283.212044675
 10
511.5351868194
 20
-287.8947613994
 10
507.5063738274
 20
-292.4248685551
 10
503.3970672615
 20
-296.7934982446
 10
499.2153112822
 20
-300.9920986702
 10
494.9692918733
 20
-305.0124508742
 10
490.6673208171
 20
-308.8466848286
 10
486.3178194241
 20
-312.4872948402
 10
481.9293020473
 20
-315.9271542441
 10
477.5103594158
 20
-319.1595293538
 10
473.0696418172
 20
-322.1780926434
 10
468.6158421646
 20
-324.9769351334
 10
464.1576789802
 20
-327.5505779582
 10
459.7038793277
 20
-329.8939830912
 10
455.2631617291
 20
-332.0025632067
 10
450.8442190975
 20
-333.8721906602
 10
446.4557017208
 20
-335.499205568
 10
442.1062003277
 20
-336.8804229722
 10
437.8042292716
 20
-338.0131390748
 10
433.5582098627
 20
-338.8951365308
 10
429.3764538834
 20
-339.5246887888
 10
425.2671473175
 20
-339.9005634707
 10
421.2383343255
 20
-340.0220247841
 10
417.2979014981
 20
-339.8888349629
 10
413.4535624175
 20
-339.5012547323
 10
409.9502170512
 20
-338.9089025437
  0
LWPOLYLINE
  5
162
330
1F
100
AcDbEntity
  8
0
  6
Continuous
 62
     1
370
    25
100
AcDbPolyline
 90
       15
 70
   128
 43
0.0
 10
550.6006030962
 20
-97.4291707122
 10
550.9339335753
 20
-97.8265048371
 10
553.2759192211
 20
-100.8550503747
 10
555.4478152585
 20
-104.0971253612
 10
557.445370099
 20
-107.5463832828
 10
559.2646734353
 20
-111.196072055
 10
560.9021638955
 20
-115.0390472406
 10
562.3546360154
 20
-119.0677860353
 10
563.6192465124
 20
-123.2744019938
 10
564.6935198521
 20
-127.6506604676
 10
565.575353094
 20
-132.1879947253
 10
566.2630200082
 20
-136.8775227221
 10
566.7551744544
 20
-141.7100644867
 10
567.050853017
 20
-146.6761600916
 10
567.1494768915
 20
-151.7660881715
  0
LWPOLYLINE
  5
163
330
1F
100
AcDbEntity
  8
0
  6
Continuous
 62
     1
370
    25
100
AcDbPolyline
 90
       15
 70
   128
 43
0.0
 10
582.7058260776
 20
-160.7465774016
 10
582.6072022031
 20
-155.6566493217
 10
582.3115236405
 20
-150.6905537168
 10
581.8193691943
 20
-145.8580119522
 10
581.1317022801
 20
-141.1684839554
 10
580.2498690382
 20
-136.6311496976
 10
579.1755956985
 20
-132.2548912238
 10
577.9109852015
 20
-128.0482752654
 10
576.4585130817
 20
-124.0195364707
 10
574.8210226214
 20
-120.176561285
 10
573.0017192851
 20
-116.5268725128
 10
571.0041644446
 20
-113.0776145913
 10
568.8322684072
 20
-109.8355396047
 10
566.4902827614
 20
-106.8069940671
 10
565.9134839127
 20
-106.1243157821
  0
LWPOLYLINE
  5
164
330
1F
100
AcDbEntity
  8
0
  6
Continuous
 62
     1
370
    25
100
AcDbPolyline
 90
       50
 70
   128
 43
0.0
 10
426.4740354244
 20
-348.0768502567
 10
429.0099116036
 20
-348.4817439623
 10
432.8542506842
 20
-348.8693241929
 10
436.7946835116
 20
-349.0025140142
 10
440.8234965036
 20
-348.8810527008
 10
444.9328030695
 20
-348.5051780189
 10
449.1145590488
 20
-347.8756257609
 10
453.3605784577
 20
-346.9936283049
 10
457.6625495138
 20
-345.8609122023
 10
462.0120509069
 20
-344.4796947981
 10
466.4005682836
 20
-342.8526798902
 10
470.8195109152
 20
-340.9830524368
 10
475.2602285138
 20
-338.8744723212
 10
479.7140281663
 20
-336.5310671883
 10
484.1721913507
 20
-333.9574243634
 10
488.6259910033
 20
-331.1585818734
 10
493.0667086019
 20
-328.1400185839
 10
497.4856512334
 20
-324.9076434741
 10
501.8741686102
 20
-321.4677840703
 10
506.2236700032
 20
-317.8271740586
 10
510.5256410594
 20
-313.9929401043
 10
514.7716604683
 20
-309.9725879002
 10
518.9534164476
 20
-305.7739874747
 10
523.0627230135
 20
-301.4053577852
 10
527.0915360055
 20
-296.8752506295
 10
531.0319688329
 20
-292.1925339051
 10
534.8763079135
 20
-287.3663742498
 10
538.617027773
 20
-282.4062190979
 10
542.2468057765
 20
-277.321778186
 10
545.7585364632
 20
-272.1230045459
 10
549.1453454554
 20
-266.8200750212
 10
552.4006029153
 20
-261.4233703455
 10
555.5179365237
 20
-255.9434548214
 10
558.4912439537
 20
-250.3910556412
 10
561.3147048162
 20
-244.7770418868
 10
563.9827920542
 20
-239.1124032539
 10
566.4902827614
 20
-233.4082285385
 10
568.8322684072
 20
-227.6756839306
 10
571.0041644446
 20
-221.9259911554
 10
573.0017192851
 20
-216.1704055065
 10
574.8210226214
 20
-210.4201938131
 10
576.4585130817
 20
-204.6866123847
 10
577.9109852015
 20
-198.9808849762
 10
579.1755956985
 20
-193.3141808168
 10
580.2498690382
 20
-187.6975927461
 10
581.1317022801
 20
-182.142115499
 10
581.8193691943
 20
-176.658624183
 10
582.3115236405
 20
-171.2578529901
 10
582.6072022031
 20
-165.9503741832
 10
582.7058260776
 20
-160.7465774016
  0
LWPOLYLINE
  5
165
330
1F
100
AcDbEntity
  8
0
  6
Continuous
 62
     1
370
    25
100
AcDbPolyline
 90
       21
 70
   128
 43
0.0
 10
532.0389991569
 20
-235.1514019163
 10
531.1302673527
 20
-234.8286196115
 10
530.0462061618
 20
-234.7316882053
 10
528.8757845816
 20
-234.8947792408
 10
527.6493159163
 20
-235.3136687461
 10
526.3985650601
 20
-235.9775077027
 10
525.1559258031
 20
-236.8691030306
 10
523.9535818495
 20
-237.965362879
 10
522.8226732759
 20
-239.2378946937
 10
521.7924900205
 20
-240.6537405692
 10
520.8897132884
 20
-242.1762308409
 10
520.1377245228
 20
-243.7659338105
 10
519.5559998376
 20
-245.3816770062
 10
519.1596055968
 20
-246.981613528
 10
518.9588082029
 20
-248.5243058602
 10
518.9588082029
 20
-249.9697990819
 10
519.1596055968
 20
-251.2806556779
 10
519.5559998376
 20
-252.4229251509
 10
520.1377245228
 20
-253.3670233215
 10
520.8897132884
 20
-254.0884985431
 10
521.1516699654
 20
-254.2621803526
  0
LWPOLYLINE
  5
166
330
1F
100
AcDbEntity
  8
0
  6
Continuous
 62
     1
370
    25
100
AcDbPolyline
 90
       53
 70
   128
 43
0.0
 10
503.1424822212
 20
-124.765003597
 10
500.6546136493
 20
-124.3848233341
 10
497.5209503421
 20
-124.1479586033
 10
494.295965092
 20
-124.1627225332
 10
490.9891173364
 20
-124.4290718186
 10
487.6101066295
 20
-124.9462252112
 10
484.1688441918
 20
-125.7126658109
 10
480.6754238391
 20
-126.7261455154
 10
477.1400923751
 20
-127.9836916141
 10
473.5732195361
 20
-129.4816155076
 10
469.9852675748
 20
-131.2155235271
 10
466.3867605724
 20
-133.1803298216
 10
462.7882535701
 20
-135.3702712758
 10
459.2003016088
 20
-137.7789244139
 10
455.6334287698
 20
-140.3992242413
 10
452.0980973058
 20
-143.2234849672
 10
448.6046769531
 20
-146.2434225483
 10
445.1634145154
 20
-149.4501789873
 10
441.7844038085
 20
-152.834348315
 10
438.4775560528
 20
-156.3860041797
 10
435.2525708028
 20
-160.0947289629
 10
432.1189074956
 20
-163.9496443357
 10
429.0857577058
 20
-167.9394431671
 10
426.1620181843
 20
-172.0524226898
 10
423.3562647629
 20
-176.2765188261
 10
420.6767271997
 20
-180.5993415744
 10
418.1312650402
 20
-185.0082113505
 10
415.7273445633
 20
-189.4901961799
 10
413.4720168821
 20
-194.0321496288
 10
411.3718972613
 20
-198.6207493652
 10
409.4331457135
 20
-203.2425362355
 10
407.661448931
 20
-207.8839537424
 10
406.0620036058
 20
-212.5313878086
 10
404.6395011866
 20
-217.1712067094
 10
403.3981141181
 20
-221.7898010564
 10
402.3414836025
 20
-226.3736237167
 10
401.4727089191
 20
-230.9092295486
 10
400.7943383337
 20
-235.3833148388
 10
400.3083616242
 20
-239.7827563241
 10
400.0162042439
 20
-244.0946496848
 10
399.9187231409
 20
-248.3063473946
 10
400.0162042439
 20
-252.4054958185
 10
400.3083616242
 20
-256.3800714479
 10
400.7943383337
 20
-260.2184161677
 10
401.4727089191
 20
-263.9092714515
 10
402.3414836025
 20
-267.4418113848
 10
403.3981141181
 20
-270.8056744193
 10
404.6395011866
 20
-273.9909937652
 10
406.0620036058
 20
-276.9884263319
 10
407.661448931
 20
-279.7891801334
 10
409.4331457135
 20
-282.3850400762
 10
411.3718972613
 20
-284.7683920558
 10
411.8926985996
 20
-285.3416774551
  0
LWPOLYLINE
  5
167
330
1F
100
AcDbEntity
  8
0
  6
Continuous
 62
     1
370
    25
100
AcDbPolyline
 90
       53
 70
   128
 43
0.0
 10
427.4653288818
 20
-294.3396759721
 10
426.9282464474
 20
-293.7488812858
 10
424.9894948996
 20
-291.3655293063
 10
423.2177981171
 20
-288.7696693635
 10
421.6183527919
 20
-285.968915562
 10
420.1958503727
 20
-282.9714829952
 10
418.9544633043
 20
-279.7861636494
 10
417.8978327886
 20
-276.4223006148
 10
417.0290581052
 20
-272.8897606816
 10
416.3506875198
 20
-269.1989053978
 10
415.8647108103
 20
-265.360560678
 10
415.57255343
 20
-261.3859850485
 10
415.475072327
 20
-257.2868366246
 10
415.57255343
 20
-253.0751389148
 10
415.8647108103
 20
-248.7632455541
 10
416.3506875198
 20
-244.3638040688
 10
417.0290581052
 20
-239.8897187787
 10
417.8978327886
 20
-235.3541129468
 10
418.9544633043
 20
-230.7702902865
 10
420.1958503727
 20
-226.1516959394
 10
421.6183527919
 20
-221.5118770387
 10
423.2177981171
 20
-216.8644429724
 10
424.9894948996
 20
-212.2230254655
 10
426.9282464474
 20
-207.6012385953
 10
429.0283660682
 20
-203.0126388589
 10
431.2836937494
 20
-198.47068541
 10
433.6876142263
 20
-193.9887005806
 10
436.2330763858
 20
-189.5798308044
 10
438.912613949
 20
-185.2570080562
 10
441.7183673704
 20
-181.0329119199
 10
444.6421068919
 20
-176.9199323972
 10
447.6752566817
 20
-172.9301335657
 10
450.8089199889
 20
-169.0752181929
 10
454.0339052389
 20
-165.3664934098
 10
457.3407529946
 20
-161.8148375451
 10
460.7197637015
 20
-158.4306682173
 10
464.1610261392
 20
-155.2239117784
 10
467.6544464919
 20
-152.2039741973
 10
471.1897779559
 20
-149.3797134714
 10
474.7566507949
 20
-146.7594136439
 10
478.3446027562
 20
-144.3507605058
 10
481.9431097585
 20
-142.1608190517
 10
485.5416167609
 20
-140.1960127572
 10
489.1295687222
 20
-138.4621047377
 10
492.6964415612
 20
-136.9641808441
 10
496.2317730252
 20
-135.7066347454
 10
499.7251933779
 20
-134.6931550409
 10
503.1664558156
 20
-133.9267144412
 10
506.5454665225
 20
-133.4095610487
 10
509.8523142781
 20
-133.1432117633
 10
513.0772995282
 20
-133.1284478334
 10
516.2109628354
 20
-133.3653125641
 10
518.6568720988
 20
-133.7375839177
  0
LWPOLYLINE
  5
168
330
1F
100
AcDbEntity
  8
0
  6
Continuous
 62
     1
370
    25
100
AcDbPolyline
 90
       21
 70
   128
 43
0.0
 10
557.0264323071
 20
-151.0653803738
 10
556.1177005028
 20
-150.7425980689
 10
555.0336393119
 20
-150.6456666627
 10
553.8632177318
 20
-150.8087576983
 10
552.6367490665
 20
-151.2276472035
 10
551.3859982103
 20
-151.8914861602
 10
550.1433589533
 20
-152.7830814881
 10
548.9410149996
 20
-153.8793413365
 10
547.8101064261
 20
-155.1518731512
 10
546.7799231706
 20
-156.5677190266
 10
545.8771464385
 20
-158.0902092983
 10
545.1251576729
 20
-159.679912268
 10
544.5434329878
 20
-161.2956554637
 10
544.147038747
 20
-162.8955919854
 10
543.946241353
 20
-164.4382843177
 10
543.946241353
 20
-165.8837775394
 10
544.147038747
 20
-167.1946341354
 10
544.5434329878
 20
-168.3369036083
 10
545.1251576729
 20
-169.281001779
 10
545.8771464385
 20
-170.0024770006
 10
546.1391031155
 20
-170.1761588101
  0
LWPOLYLINE
  5
169
330
1F
100
AcDbEntity
  8
0
  6
Continuous
 62
     1
370
    25
100
AcDbPolyline
 90
       21
 70
   128
 43
0.0
 10
471.7139991569
 20
-298.8308486735
 10
470.8052673527
 20
-298.5080663686
 10
469.7212061618
 20
-298.4111349625
 10
468.5507845816
 20
-298.574225998
 10
467.3243159163
 20
-298.9931155033
 10
466.0735650601
 20
-299.6569544599
 10
464.8309258031
 20
-300.5485497878
 10
463.6285818495
 20
-301.6448096362
 10
462.4976732759
 20
-302.9173414509
 10
461.4674900205
 20
-304.3331873264
 10
460.5647132884
 20
-305.8556775981
 10
459.8127245228
 20
-307.4453805677
 10
459.2309998376
 20
-309.0611237634
 10
458.8346055968
 20
-310.6610602852
 10
458.6338082029
 20
-312.2037526174
 10
458.6338082029
 20
-313.6492458391
 10
458.8346055968
 20
-314.9601024351
 10
459.2309998376
 20
-316.1023719081
 10
459.8127245228
 20
-317.0464700787
 10
460.5647132884
 20
-317.7679453003
 10
460.8266699654
 20
-317.9416271098
  0
LWPOLYLINE
  5
16A
330
1F
100
AcDbEntity
  8
0
  6
Continuous
 62
     1
370
    25
100
AcDbPolyline
 90
       21
 70
   128
 43
0.0
 10
532.0389991569
 20
-95.8292350596
 10
531.1302673527
 20
-95.5064527547
 10
530.0462061618
 20
-95.4095213485
 10
528.8757845816
 20
-95.5726123841
 10
527.6493159163
 20
-95.9915018893
 10
526.3985650601
 20
-96.655340846
 10
525.1559258032
 20
-97.5469361738
 10
523.9535818495
 20
-98.6431960223
 10
522.8226732759
 20
-99.915727837
 10
521.7924900205
 20
-101.3315737124
 10
520.8897132884
 20
-102.8540639841
 10
520.1377245228
 20
-104.4437669537
 10
519.5559998376
 20
-106.0595101495
 10
519.1596055968
 20
-107.6594466712
 10
518.9588082029
 20
-109.2021390035
 10
518.9588082029
 20
-110.6476322251
 10
519.1596055968
 20
-111.9584888211
 10
519.5559998376
 20
-113.1007582941
 10
520.1377245228
 20
-114.0448564648
 10
520.8897132884
 20
-114.7663316864
 10
521.1516699654
 20
-114.9400134958
  0
LWPOLYLINE
  5
16B
330
1F
100
AcDbEntity
  8
0
  6
Continuous
 62
     1
370
    25
100
AcDbPolyline
 90
       21
 70
   128
 43
0.0
 10
411.3889991569
 20
-304.8011643794
 10
410.4802673527
 20
-304.4783820746
 10
409.3962061618
 20
-304.3814506684
 10
408.2257845816
 20
-304.544541704
 10
406.9993159163
 20
-304.9634312092
 10
405.7485650601
 20
-305.6272701659
 10
404.5059258031
 20
-306.5188654937
 10
403.3035818495
 20
-307.6151253421
 10
402.1726732759
 20
-308.8876571568
 10
401.1424900205
 20
-310.3035030323
 10
400.2397132884
 20
-311.825993304
 10
399.4877245228
 20
-313.4156962736
 10
398.9059998376
 20
-315.0314394693
 10
398.5096055968
 20
-316.6313759911
 10
398.3088082029
 20
-318.1740683233
 10
398.3088082029
 20
-319.619561545
 10
398.5096055968
 20
-320.930418141
 10
398.9059998376
 20
-322.072687614
 10
399.4877245228
 20
-323.0167857846
 10
400.2397132884
 20
-323.7382610062
 10
400.5016699654
 20
-323.9119428157
  0
LWPOLYLINE
  5
16C
330
1F
100
AcDbEntity
  8
0
  6
Continuous
 62
     1
370
    25
100
AcDbPolyline
 90
       21
 70
   128
 43
0.0
 10
471.7139991569
 20
-101.7995507655
 10
470.8052673527
 20
-101.4767684606
 10
469.7212061618
 20
-101.3798370544
 10
468.5507845816
 20
-101.54292809
 10
467.3243159163
 20
-101.9618175952
 10
466.0735650601
 20
-102.6256565519
 10
464.8309258032
 20
-103.5172518798
 10
463.6285818495
 20
-104.6135117282
 10
462.4976732759
 20
-105.8860435429
 10
461.4674900205
 20
-107.3018894183
 10
460.5647132884
 20
-108.82437969
 10
459.8127245228
 20
-110.4140826597
 10
459.2309998376
 20
-112.0298258554
 10
458.8346055968
 20
-113.6297623771
 10
458.6338082029
 20
-115.1724547094
 10
458.6338082029
 20
-116.6179479311
 10
458.8346055968
 20
-117.928804527
 10
459.2309998376
 20
-119.071074
 10
459.8127245228
 20
-120.0151721707
 10
460.5647132884
 20
-120.7366473923
 10
460.8266699654
 20
-120.9103292018
  0
LWPOLYLINE
  5
16D
330
1F
100
AcDbEntity
  8
0
  6
Continuous
 62
     1
370
    25
100
AcDbPolyline
 90
       21
 70
   128
 43
0.0
 10
386.4015660068
 20
-249.5650190652
 10
385.4928342025
 20
-249.2422367603
 10
384.4087730116
 20
-249.1453053541
 10
383.2383514315
 20
-249.3083963897
 10
382.0118827662
 20
-249.7272858949
 10
380.76113191
 20
-250.3911248516
 10
379.518492653
 20
-251.2827201795
 10
378.3161486993
 20
-252.3789800279
 10
377.1852401258
 20
-253.6515118426
 10
376.1550568703
 20
-255.067357718
 10
375.2522801382
 20
-256.5898479897
 10
374.5002913726
 20
-258.1795509594
 10
373.9185666875
 20
-259.7952941551
 10
373.5221724466
 20
-261.3952306768
 10
373.3213750527
 20
-262.9379230091
 10
373.3213750527
 20
-264.3834162308
 10
373.5221724466
 20
-265.6942728268
 10
373.9185666875
 20
-266.8365422997
 10
374.5002913726
 20
-267.7806404704
 10
375.2522801382
 20
-268.502115692
 10
375.5142368152
 20
-268.6757975015
  0
LWPOLYLINE
  5
16E
330
1F
100
AcDbEntity
  8
0
  6
Continuous
 62
     1
370
    25
100
AcDbPolyline
 90
       21
 70
   128
 43
0.0
 10
411.3889991569
 20
-165.4789975227
 10
410.4802673527
 20
-165.1562152178
 10
409.3962061618
 20
-165.0592838116
 10
408.2257845816
 20
-165.2223748472
 10
406.9993159163
 20
-165.6412643524
 10
405.7485650601
 20
-166.3051033091
 10
404.5059258032
 20
-167.196698637
 10
403.3035818495
 20
-168.2929584854
 10
402.1726732759
 20
-169.5654903001
 10
401.1424900205
 20
-170.9813361755
 10
400.2397132884
 20
-172.5038264472
 10
399.4877245228
 20
-174.0935294169
 10
398.9059998376
 20
-175.7092726126
 10
398.5096055968
 20
-177.3092091343
 10
398.3088082029
 20
-178.8519014666
 10
398.3088082029
 20
-180.2973946883
 10
398.5096055968
 20
-181.6082512842
 10
398.9059998376
 20
-182.7505207572
 10
399.4877245228
 20
-183.6946189279
 10
400.2397132884
 20
-184.4160941495
 10
400.5016699654
 20
-184.589775959
  0
ENDSEC
  0
SECTION
  2
OBJECTS
  0
DICTIONARY
  5
C
330
0
100
AcDbDictionary
281
     1
  3
ACAD_GROUP
350
D
  3
ACAD_LAYOUT
350
1A
  3
ACAD_MLINESTYLE
350
17
  3
ACAD_PLOTSETTINGS
350
19
  3
ACAD_PLOTSTYLENAME
350
E
  3
ACAD_SCALELIST
350
47
  3
DWGPROPS
350
16F
  0
DICTIONARY
  5
D
102
{ACAD_REACTORS
330
C
102
}
330
C
100
AcDbDictionary
281
     1
  0
DICTIONARY
  5
1A
102
{ACAD_REACTORS
330
C
102
}
330
C
100
AcDbDictionary
281
     1
  3
Layout1
350
1E
  3
Layout2
350
26
  3
Model
350
22
  0
DICTIONARY
  5
17
102
{ACAD_REACTORS
330
C
102
}
330
C
100
AcDbDictionary
281
     1
  3
Standard
350
18
  0
DICTIONARY
  5
19
102
{ACAD_REACTORS
330
C
102
}
330
C
100
AcDbDictionary
281
     1
  0
ACDBDICTIONARYWDFLT
  5
E
102
{ACAD_REACTORS
330
C
102
}
330
C
100
AcDbDictionary
281
     1
  3
Normal
350
F
100
AcDbDictionaryWithDefault
340
F
  0
DICTIONARY
  5
47
102
{ACAD_REACTORS
330
C
102
}
330
C
100
AcDbDictionary
281
     1
  3
A0
350
48
  3
A1
350
49
  3
A2
350
4A
  3
A3
350
4B
  3
A4
350
4C
  3
A5
350
4D
  3
A6
350
4E
  3
A7
350
4F
  3
A8
350
50
  3
A9
350
51
  3
B0
350
52
  3
B1
350
53
  3
B2
350
54
  3
B3
350
55
  3
B4
350
56
  3
B5
350
57
  3
B6
350
58
  3
B7
350
59
  3
B8
350
5A
  3
B9
350
5B
  3
C0
350
5C
  3
C1
350
5D
  3
C2
350
5E
  3
C3
350
5F
  3
C4
350
60
  3
C5
350
61
  3
C6
350
62
  3
C7
350
63
  3
C8
350
64
  3
C9
350
65
  3
D0
350
66
  3
D1
350
67
  3
D2
350
68
  0
XRECORD
  5
16F
102
{ACAD_REACTORS
330
C
102
}
330
C
100
AcDbXrecord
280
     1
  1
DWGPROPS COOKIE
  2

  3

  4

  6

  7

  8
b.kav
  9

300
=
301
=
302
=
303
=
304
=
305
=
306
=
307
=
308
=
309
=
 40
0.0
 41
2459741.463705602
 42
2459741.46370757
  1

 90
        0
  0
LAYOUT
  5
1E
102
{ACAD_REACTORS
330
1A
102
}
330
1A
100
AcDbPlotSettings
  1

  2
none_device
  4

  6

 40
0.0
 41
0.0
 42
0.0
 43
0.0
 44
0.0
 45
0.0
 46
0.0
 47
0.0
 48
0.0
 49
0.0
140
0.0
141
0.0
142
1.0
143
1.0
 70
   688
 72
     1
 73
     0
 74
     5
  7

 75
    16
147
1.0
148
0.0
149
0.0
100
AcDbLayout
  1
Layout1
 70
     1
 71
     1
 10
0.0
 20
0.0
 11
420.0
 21
297.0
 12
0.0
 22
0.0
 32
0.0
 14
1.0000000000E+20
 24
1.0000000000E+20
 34
1.0000000000E+20
 15
-1.0000000000E+20
 25
-1.0000000000E+20
 35
-1.0000000000E+20
146
0.0
 13
0.0
 23
0.0
 33
0.0
 16
1.0
 26
0.0
 36
0.0
 17
0.0
 27
1.0
 37
0.0
 76
     0
330
1B
  0
LAYOUT
  5
26
102
{ACAD_REACTORS
330
1A
102
}
330
1A
100
AcDbPlotSettings
  1

  2
none_device
  4

  6

 40
0.0
 41
0.0
 42
0.0
 43
0.0
 44
0.0
 45
0.0
 46
0.0
 47
0.0
 48
0.0
 49
0.0
140
0.0
141
0.0
142
1.0
143
1.0
 70
   688
 72
     1
 73
     0
 74
     5
  7

 75
    16
147
1.0
148
0.0
149
0.0
100
AcDbLayout
  1
Layout2
 70
     1
 71
     2
 10
0.0
 20
0.0
 11
0.0
 21
0.0
 12
0.0
 22
0.0
 32
0.0
 14
0.0
 24
0.0
 34
0.0
 15
0.0
 25
0.0
 35
0.0
146
0.0
 13
0.0
 23
0.0
 33
0.0
 16
1.0
 26
0.0
 36
0.0
 17
0.0
 27
1.0
 37
0.0
 76
     0
330
23
  0
LAYOUT
  5
22
102
{ACAD_REACTORS
330
1A
102
}
330
1A
100
AcDbPlotSettings
  1

  2
none_device
  4
Letter_(8.50_x_11.00_Inches)
  6

 40
6.35
 41
6.35
 42
6.35000508
 43
6.35000508
 44
215.9
 45
279.4
 46
0.0
 47
0.0
 48
0.0
 49
0.0
140
0.0
141
0.0
142
1.0
143
1.0
 70
  1712
 72
     1
 73
     0
 74
     0
  7

 75
     0
147
1.0
148
0.0
149
0.0
100
AcDbLayout
  1
Model
 70
     1
 71
     0
 10
0.0
 20
0.0
 11
279.4
 21
215.9
 12
0.0
 22
0.0
 32
0.0
 14
0.0
 24
0.0
 34
0.0
 15
279.4
 25
215.9
 35
0.0
146
0.0
 13
0.0
 23
0.0
 33
0.0
 16
1.0
 26
0.0
 36
0.0
 17
0.0
 27
1.0
 37
0.0
 76
     0
330
1F
331
29
  0
MLINESTYLE
  5
18
102
{ACAD_REACTORS
330
17
102
}
330
17
100
AcDbMlineStyle
  2
Standard
 70
     0
  3

 62
   256
 51
90.0
 52
90.0
 71
     2
 49
0.5
 62
   256
  6
BYLAYER
 49
-0.5
 62
   256
  6
BYLAYER
  0
ACDBPLACEHOLDER
  5
F
102
{ACAD_REACTORS
330
E
102
}
330
E
  0
SCALE
  5
48
102
{ACAD_REACTORS
330
47
102
}
330
47
100
AcDbScale
 70
     0
300
1:1
140
1.0
141
1.0
290
     1
  0
SCALE
  5
49
102
{ACAD_REACTORS
330
47
102
}
330
47
100
AcDbScale
 70
     0
300
1:2
140
1.0
141
2.0
290
     0
  0
SCALE
  5
4A
102
{ACAD_REACTORS
330
47
102
}
330
47
100
AcDbScale
 70
     0
300
1:4
140
1.0
141
4.0
290
     0
  0
SCALE
  5
4B
102
{ACAD_REACTORS
330
47
102
}
330
47
100
AcDbScale
 70
     0
300
1:5
140
1.0
141
5.0
290
     0
  0
SCALE
  5
4C
102
{ACAD_REACTORS
330
47
102
}
330
47
100
AcDbScale
 70
     0
300
1:8
140
1.0
141
8.0
290
     0
  0
SCALE
  5
4D
102
{ACAD_REACTORS
330
47
102
}
330
47
100
AcDbScale
 70
     0
300
1:10
140
1.0
141
10.0
290
     0
  0
SCALE
  5
4E
102
{ACAD_REACTORS
330
47
102
}
330
47
100
AcDbScale
 70
     0
300
1:16
140
1.0
141
16.0
290
     0
  0
SCALE
  5
4F
102
{ACAD_REACTORS
330
47
102
}
330
47
100
AcDbScale
 70
     0
300
1:20
140
1.0
141
20.0
290
     0
  0
SCALE
  5
50
102
{ACAD_REACTORS
330
47
102
}
330
47
100
AcDbScale
 70
     0
300
1:30
140
1.0
141
30.0
290
     0
  0
SCALE
  5
51
102
{ACAD_REACTORS
330
47
102
}
330
47
100
AcDbScale
 70
     0
300
1:40
140
1.0
141
40.0
290
     0
  0
SCALE
  5
52
102
{ACAD_REACTORS
330
47
102
}
330
47
100
AcDbScale
 70
     0
300
1:50
140
1.0
141
50.0
290
     0
  0
SCALE
  5
53
102
{ACAD_REACTORS
330
47
102
}
330
47
100
AcDbScale
 70
     0
300
1:100
140
1.0
141
100.0
290
     0
  0
SCALE
  5
54
102
{ACAD_REACTORS
330
47
102
}
330
47
100
AcDbScale
 70
     0
300
2:1
140
2.0
141
1.0
290
     0
  0
SCALE
  5
55
102
{ACAD_REACTORS
330
47
102
}
330
47
100
AcDbScale
 70
     0
300
4:1
140
4.0
141
1.0
290
     0
  0
SCALE
  5
56
102
{ACAD_REACTORS
330
47
102
}
330
47
100
AcDbScale
 70
     0
300
8:1
140
8.0
141
1.0
290
     0
  0
SCALE
  5
57
102
{ACAD_REACTORS
330
47
102
}
330
47
100
AcDbScale
 70
     0
300
10:1
140
10.0
141
1.0
290
     0
  0
SCALE
  5
58
102
{ACAD_REACTORS
330
47
102
}
330
47
100
AcDbScale
 70
     0
300
100:1
140
100.0
141
1.0
290
     0
  0
SCALE
  5
59
102
{ACAD_REACTORS
330
47
102
}
330
47
100
AcDbScale
 70
     0
300
1/128" = 1'-0"
140
0.0078125
141
12.0
290
     0
  0
SCALE
  5
5A
102
{ACAD_REACTORS
330
47
102
}
330
47
100
AcDbScale
 70
     0
300
1/64" = 1'-0"
140
0.015625
141
12.0
290
     0
  0
SCALE
  5
5B
102
{ACAD_REACTORS
330
47
102
}
330
47
100
AcDbScale
 70
     0
300
1/32" = 1'-0"
140
0.03125
141
12.0
290
     0
  0
SCALE
  5
5C
102
{ACAD_REACTORS
330
47
102
}
330
47
100
AcDbScale
 70
     0
300
1/16" = 1'-0"
140
0.0625
141
12.0
290
     0
  0
SCALE
  5
5D
102
{ACAD_REACTORS
330
47
102
}
330
47
100
AcDbScale
 70
     0
300
3/32" = 1'-0"
140
0.09375
141
12.0
290
     0
  0
SCALE
  5
5E
102
{ACAD_REACTORS
330
47
102
}
330
47
100
AcDbScale
 70
     0
300
1/8" = 1'-0"
140
0.125
141
12.0
290
     0
  0
SCALE
  5
5F
102
{ACAD_REACTORS
330
47
102
}
330
47
100
AcDbScale
 70
     0
300
3/16" = 1'-0"
140
0.1875
141
12.0
290
     0
  0
SCALE
  5
60
102
{ACAD_REACTORS
330
47
102
}
330
47
100
AcDbScale
 70
     0
300
1/4" = 1'-0"
140
0.25
141
12.0
290
     0
  0
SCALE
  5
61
102
{ACAD_REACTORS
330
47
102
}
330
47
100
AcDbScale
 70
     0
300
3/8" = 1'-0"
140
0.375
141
12.0
290
     0
  0
SCALE
  5
62
102
{ACAD_REACTORS
330
47
102
}
330
47
100
AcDbScale
 70
     0
300
1/2" = 1'-0"
140
0.5
141
12.0
290
     0
  0
SCALE
  5
63
102
{ACAD_REACTORS
330
47
102
}
330
47
100
AcDbScale
 70
     0
300
3/4" = 1'-0"
140
0.75
141
12.0
290
     0
  0
SCALE
  5
64
102
{ACAD_REACTORS
330
47
102
}
330
47
100
AcDbScale
 70
     0
300
1" = 1'-0"
140
1.0
141
12.0
290
     0
  0
SCALE
  5
65
102
{ACAD_REACTORS
330
47
102
}
330
47
100
AcDbScale
 70
     0
300
1-1/2" = 1'-0"
140
1.5
141
12.0
290
     0
  0
SCALE
  5
66
102
{ACAD_REACTORS
330
47
102
}
330
47
100
AcDbScale
 70
     0
300
3" = 1'-0"
140
3.0
141
12.0
290
     0
  0
SCALE
  5
67
102
{ACAD_REACTORS
330
47
102
}
330
47
100
AcDbScale
 70
     0
300
6" = 1'-0"
140
6.0
141
12.0
290
     0
  0
SCALE
  5
68
102
{ACAD_REACTORS
330
47
102
}
330
47
100
AcDbScale
 70
     0
300
1'-0" = 1'-0"
140
12.0
141
12.0
290
     0
  0
ENDSEC
  0
EOF
